  0
SECTION
  2
HEADER
  9
$ACADVER
  1
AC1015
  9
$ACADMAINTVER
 70
     6
  9
$DWGCODEPAGE
  3
ANSI_936
  9
$INSBASE
 10
0.0
 20
0.0
 30
0.0
  9
$EXTMIN
 10
-93.57054
 20
-61.69353
 30
0.0
  9
$EXTMAX
 10
128.06726
 20
123.33199
 30
0.0
  9
$LIMMIN
 10
0.0
 20
0.0
  9
$LIMMAX
 10
12.0
 20
9.0
  9
$ORTHOMODE
 70
     0
  9
$REGENMODE
 70
     1
  9
$FILLMODE
 70
     1
  9
$QTEXTMODE
 70
     0
  9
$MIRRTEXT
 70
     1
  9
$LTSCALE
 40
1.0
  9
$ATTMODE
 70
     1
  9
$TEXTSIZE
 40
0.2
  9
$TRACEWID
 40
0.05
  9
$TEXTSTYLE
  7
Standard
  9
$CLAYER
  8
0
  9
$CELTYPE
  6
ByLayer
  9
$CECOLOR
 62
   256
  9
$CELTSCALE
 40
1.0
  9
$DISPSILH
 70
     0
  9
$DIMSCALE
 40
1.0
  9
$DIMASZ
 40
0.18
  9
$DIMEXO
 40
0.0625
  9
$DIMDLI
 40
0.38
  9
$DIMRND
 40
0.0
  9
$DIMDLE
 40
0.0
  9
$DIMEXE
 40
0.18
  9
$DIMTP
 40
0.0
  9
$DIMTM
 40
0.0
  9
$DIMTXT
 40
0.18
  9
$DIMCEN
 40
0.09
  9
$DIMTSZ
 40
0.0
  9
$DIMTOL
 70
     0
  9
$DIMLIM
 70
     0
  9
$DIMTIH
 70
     1
  9
$DIMTOH
 70
     1
  9
$DIMSE1
 70
     0
  9
$DIMSE2
 70
     0
  9
$DIMTAD
 70
     0
  9
$DIMZIN
 70
     0
  9
$DIMBLK
  1

  9
$DIMASO
 70
     1
  9
$DIMSHO
 70
     1
  9
$DIMPOST
  1

  9
$DIMAPOST
  1

  9
$DIMALT
 70
     0
  9
$DIMALTD
 70
     2
  9
$DIMALTF
 40
25.4
  9
$DIMLFAC
 40
1.0
  9
$DIMTOFL
 70
     0
  9
$DIMTVP
 40
0.0
  9
$DIMTIX
 70
     0
  9
$DIMSOXD
 70
     0
  9
$DIMSAH
 70
     0
  9
$DIMBLK1
  1

  9
$DIMBLK2
  1

  9
$DIMSTYLE
  2
Standard
  9
$DIMCLRD
 70
     0
  9
$DIMCLRE
 70
     0
  9
$DIMCLRT
 70
     0
  9
$DIMTFAC
 40
1.0
  9
$DIMGAP
 40
0.09
  9
$DIMJUST
 70
     0
  9
$DIMSD1
 70
     0
  9
$DIMSD2
 70
     0
  9
$DIMTOLJ
 70
     1
  9
$DIMTZIN
 70
     0
  9
$DIMALTZ
 70
     0
  9
$DIMALTTZ
 70
     0
  9
$DIMUPT
 70
     0
  9
$DIMDEC
 70
     4
  9
$DIMTDEC
 70
     4
  9
$DIMALTU
 70
     2
  9
$DIMALTTD
 70
     2
  9
$DIMTXSTY
  7
Standard
  9
$DIMAUNIT
 70
     0
  9
$DIMADEC
 70
     0
  9
$DIMALTRND
 40
0.0
  9
$DIMAZIN
 70
     0
  9
$DIMDSEP
 70
    46
  9
$DIMATFIT
 70
     3
  9
$DIMFRAC
 70
     0
  9
$DIMLDRBLK
  1

  9
$DIMLUNIT
 70
     2
  9
$DIMLWD
 70
    -2
  9
$DIMLWE
 70
    -2
  9
$DIMTMOVE
 70
     0
  9
$LUNITS
 70
     2
  9
$LUPREC
 70
     4
  9
$SKETCHINC
 40
0.1
  9
$FILLETRAD
 40
0.5
  9
$AUNITS
 70
     0
  9
$AUPREC
 70
     0
  9
$MENU
  1
.
  9
$ELEVATION
 40
0.0
  9
$PELEVATION
 40
0.0
  9
$THICKNESS
 40
0.0
  9
$LIMCHECK
 70
     0
  9
$CHAMFERA
 40
0.5
  9
$CHAMFERB
 40
0.5
  9
$CHAMFERC
 40
1.0
  9
$CHAMFERD
 40
0.0
  9
$SKPOLY
 70
     0
  9
$TDCREATE
 40
2458568.625360428
  9
$TDUCREATE
 40
2458568.292027095
  9
$TDUPDATE
 40
2458568.625361053
  9
$TDUUPDATE
 40
2458568.29202772
  9
$TDINDWG
 40
0.0000000116
  9
$TDUSRTIMER
 40
0.0000000116
  9
$USRTIMER
 70
     1
  9
$ANGBASE
 50
0.0
  9
$ANGDIR
 70
     0
  9
$PDMODE
 70
     0
  9
$PDSIZE
 40
0.0
  9
$PLINEWID
 40
0.0
  9
$SPLFRAME
 70
     0
  9
$SPLINETYPE
 70
     6
  9
$SPLINESEGS
 70
     8
  9
$HANDSEED
  5
DD
  9
$SURFTAB1
 70
     6
  9
$SURFTAB2
 70
     6
  9
$SURFTYPE
 70
     6
  9
$SURFU
 70
     6
  9
$SURFV
 70
     6
  9
$UCSBASE
  2

  9
$UCSNAME
  2

  9
$UCSORG
 10
0.0
 20
0.0
 30
0.0
  9
$UCSXDIR
 10
1.0
 20
0.0
 30
0.0
  9
$UCSYDIR
 10
0.0
 20
1.0
 30
0.0
  9
$UCSORTHOREF
  2

  9
$UCSORTHOVIEW
 70
     0
  9
$UCSORGTOP
 10
0.0
 20
0.0
 30
0.0
  9
$UCSORGBOTTOM
 10
0.0
 20
0.0
 30
0.0
  9
$UCSORGLEFT
 10
0.0
 20
0.0
 30
0.0
  9
$UCSORGRIGHT
 10
0.0
 20
0.0
 30
0.0
  9
$UCSORGFRONT
 10
0.0
 20
0.0
 30
0.0
  9
$UCSORGBACK
 10
0.0
 20
0.0
 30
0.0
  9
$PUCSBASE
  2

  9
$PUCSNAME
  2

  9
$PUCSORG
 10
0.0
 20
0.0
 30
0.0
  9
$PUCSXDIR
 10
1.0
 20
0.0
 30
0.0
  9
$PUCSYDIR
 10
0.0
 20
1.0
 30
0.0
  9
$PUCSORTHOREF
  2

  9
$PUCSORTHOVIEW
 70
     0
  9
$PUCSORGTOP
 10
0.0
 20
0.0
 30
0.0
  9
$PUCSORGBOTTOM
 10
0.0
 20
0.0
 30
0.0
  9
$PUCSORGLEFT
 10
0.0
 20
0.0
 30
0.0
  9
$PUCSORGRIGHT
 10
0.0
 20
0.0
 30
0.0
  9
$PUCSORGFRONT
 10
0.0
 20
0.0
 30
0.0
  9
$PUCSORGBACK
 10
0.0
 20
0.0
 30
0.0
  9
$USERI1
 70
     0
  9
$USERI2
 70
     0
  9
$USERI3
 70
     0
  9
$USERI4
 70
     0
  9
$USERI5
 70
     0
  9
$USERR1
 40
0.0
  9
$USERR2
 40
0.0
  9
$USERR3
 40
0.0
  9
$USERR4
 40
0.0
  9
$USERR5
 40
0.0
  9
$WORLDVIEW
 70
     1
  9
$SHADEDGE
 70
     3
  9
$SHADEDIF
 70
    70
  9
$TILEMODE
 70
     1
  9
$MAXACTVP
 70
    64
  9
$PINSBASE
 10
0.0
 20
0.0
 30
0.0
  9
$PLIMCHECK
 70
     0
  9
$PEXTMIN
 10
1.000000000000000E+20
 20
1.000000000000000E+20
 30
1.000000000000000E+20
  9
$PEXTMAX
 10
-1.000000000000000E+20
 20
-1.000000000000000E+20
 30
-1.000000000000000E+20
  9
$PLIMMIN
 10
0.0
 20
0.0
  9
$PLIMMAX
 10
12.0
 20
9.0
  9
$UNITMODE
 70
     0
  9
$VISRETAIN
 70
     1
  9
$PLINEGEN
 70
     0
  9
$PSLTSCALE
 70
     1
  9
$TREEDEPTH
 70
  3020
  9
$CMLSTYLE
  2
Standard
  9
$CMLJUST
 70
     0
  9
$CMLSCALE
 40
1.0
  9
$PROXYGRAPHICS
 70
     1
  9
$MEASUREMENT
 70
     0
  9
$CELWEIGHT
370
    -1
  9
$ENDCAPS
280
     0
  9
$JOINSTYLE
280
     0
  9
$LWDISPLAY
290
     0
  9
$INSUNITS
 70
     5
  9
$HYPERLINKBASE
  1

  9
$STYLESHEET
  1

  9
$XEDIT
290
     1
  9
$CEPSNTYPE
380
     0
  9
$PSTYLEMODE
290
     1
  9
$FINGERPRINTGUID
  2
{F6F231D0-8D9F-460E-8262-EC8B550768A3}
  9
$VERSIONGUID
  2
{FAEB1C32-E019-11D5-929B-00C0DF256EC4}
  9
$EXTNAMES
290
     1
  9
$PSVPSCALE
 40
0.0
  9
$OLESTARTUP
290
     0
  0
ENDSEC
  0
SECTION
  2
CLASSES
  0
CLASS
  1
ACDBDICTIONARYWDFLT
  2
AcDbDictionaryWithDefault
  3
ObjectDBX Classes
 90
        0
280
     0
281
     0
  0
CLASS
  1
VISUALSTYLE
  2
AcDbVisualStyle
  3
ObjectDBX Classes
 90
     4095
280
     0
281
     0
  0
CLASS
  1
MATERIAL
  2
AcDbMaterial
  3
ObjectDBX Classes
 90
     1153
280
     0
281
     0
  0
CLASS
  1
DICTIONARYVAR
  2
AcDbDictionaryVar
  3
ObjectDBX Classes
 90
        0
280
     0
281
     0
  0
CLASS
  1
ACDBPLACEHOLDER
  2
AcDbPlaceHolder
  3
ObjectDBX Classes
 90
        0
280
     0
281
     0
  0
CLASS
  1
LAYOUT
  2
AcDbLayout
  3
ObjectDBX Classes
 90
        0
280
     0
281
     0
  0
ENDSEC
  0
SECTION
  2
TABLES
  0
TABLE
  2
VPORT
  5
8
330
0
100
AcDbSymbolTable
 70
     1
  0
VPORT
  5
29
330
8
100
AcDbSymbolTableRecord
100
AcDbViewportTableRecord
  2
*Active
 70
     0
 10
0.0
 20
0.0
 11
1.0
 21
1.0
 12
10.42990654205607
 22
4.5
 13
0.0
 23
0.0
 14
0.5
 24
0.5
 15
0.5
 25
0.5
 16
0.0
 26
0.0
 36
1.0
 17
0.0
 27
0.0
 37
0.0
 40
9.0
 41
1.972972972850329
 42
50.0
 43
0.0
 44
0.0
 50
0.0
 51
0.0
 71
     0
 72
   100
 73
     1
 74
     3
 75
     0
 76
     0
 77
     0
 78
     0
281
     0
 65
     1
110
0.0
120
0.0
130
0.0
111
1.0
121
0.0
131
0.0
112
0.0
122
1.0
132
0.0
 79
     0
146
0.0
  0
ENDTAB
  0
TABLE
  2
LTYPE
  5
5
330
0
100
AcDbSymbolTable
 70
     1
  0
LTYPE
  5
14
330
5
100
AcDbSymbolTableRecord
100
AcDbLinetypeTableRecord
  2
ByBlock
 70
     0
  3

 72
    65
 73
     0
 40
0.0
  0
LTYPE
  5
15
330
5
100
AcDbSymbolTableRecord
100
AcDbLinetypeTableRecord
  2
ByLayer
 70
     0
  3

 72
    65
 73
     0
 40
0.0
  0
LTYPE
  5
16
330
5
100
AcDbSymbolTableRecord
100
AcDbLinetypeTableRecord
  2
Continuous
 70
     0
  3
Solid line
 72
    65
 73
     0
 40
0.0
  0
ENDTAB
  0
TABLE
  2
LAYER
  5
2
330
0
100
AcDbSymbolTable
 70
     2
  0
LAYER
  5
10
330
2
100
AcDbSymbolTableRecord
100
AcDbLayerTableRecord
  2
0
 70
     0
 62
     7
  6
Continuous
370
    -3
390
F
  0
LAYER
  5
40
330
2
100
AcDbSymbolTableRecord
100
AcDbLayerTableRecord
  2
layer 1
 70
     0
 62
     7
  6
Continuous
370
    -3
390
F
  0
ENDTAB
  0
TABLE
  2
STYLE
  5
3
330
0
100
AcDbSymbolTable
 70
     1
  0
STYLE
  5
11
330
3
100
AcDbSymbolTableRecord
100
AcDbTextStyleTableRecord
  2
Standard
 70
     0
 40
0.0
 41
1.0
 50
0.0
 71
     0
 42
0.2
  3
txt
  4

  0
ENDTAB
  0
TABLE
  2
VIEW
  5
6
330
0
100
AcDbSymbolTable
 70
     0
  0
ENDTAB
  0
TABLE
  2
UCS
  5
7
330
0
100
AcDbSymbolTable
 70
     0
  0
ENDTAB
  0
TABLE
  2
APPID
  5
9
330
0
100
AcDbSymbolTable
 70
     2
  0
APPID
  5
12
330
9
100
AcDbSymbolTableRecord
100
AcDbRegAppTableRecord
  2
ACAD
 70
     0
  0
APPID
  5
3F
330
9
100
AcDbSymbolTableRecord
100
AcDbRegAppTableRecord
  2
ODA
 70
     0
  0
ENDTAB
  0
TABLE
  2
DIMSTYLE
  5
A
330
0
100
AcDbSymbolTable
 70
     1
100
AcDbDimStyleTable
  0
DIMSTYLE
105
27
330
A
100
AcDbSymbolTableRecord
100
AcDbDimStyleTableRecord
  2
Standard
 70
     0
178
     0
340
11
  0
ENDTAB
  0
TABLE
  2
BLOCK_RECORD
  5
1
330
0
100
AcDbSymbolTable
 70
     1
  0
BLOCK_RECORD
  5
1F
330
1
100
AcDbSymbolTableRecord
100
AcDbBlockTableRecord
  2
*Model_Space
340
22
  0
BLOCK_RECORD
  5
1B
330
1
100
AcDbSymbolTableRecord
100
AcDbBlockTableRecord
  2
*Paper_Space
340
1E
  0
BLOCK_RECORD
  5
23
330
1
100
AcDbSymbolTableRecord
100
AcDbBlockTableRecord
  2
*Paper_Space0
340
26
  0
ENDTAB
  0
ENDSEC
  0
SECTION
  2
BLOCKS
  0
BLOCK
  5
20
330
1F
100
AcDbEntity
  8
0
100
AcDbBlockBegin
  2
*Model_Space
 70
     0
 10
0.0
 20
0.0
 30
0.0
  3
*Model_Space
  1

  0
ENDBLK
  5
21
330
1F
100
AcDbEntity
  8
0
100
AcDbBlockEnd
  0
BLOCK
  5
1C
330
1B
100
AcDbEntity
 67
     1
  8
0
100
AcDbBlockBegin
  2
*Paper_Space
 70
     0
 10
0.0
 20
0.0
 30
0.0
  3
*Paper_Space
  1

  0
ENDBLK
  5
1D
330
1B
100
AcDbEntity
 67
     1
  8
0
100
AcDbBlockEnd
  0
BLOCK
  5
24
330
23
100
AcDbEntity
  8
0
100
AcDbBlockBegin
  2
*Paper_Space0
 70
     0
 10
0.0
 20
0.0
 30
0.0
  3
*Paper_Space0
  1

  0
ENDBLK
  5
25
330
23
100
AcDbEntity
  8
0
100
AcDbBlockEnd
  0
ENDSEC
  0
SECTION
  2
ENTITIES
  0
SPLINE
  5
41
330
1F
100
AcDbEntity
  8
layer 1
 62
   242
370
     9
100
AcDbSpline
210
0.0
220
0.0
230
1.0
 70
    11
 71
     3
 72
    20
 73
    16
 74
     0
 42
0.0000000001
 43
0.0000000001
 12
1.0
 22
0.0
 32
0.0
 13
1.0
 23
0.0
 33
0.0
 40
0.0
 40
0.0
 40
0.0
 40
0.0
 40
0.2
 40
0.2
 40
0.2
 40
0.2
 40
0.4
 40
0.4
 40
0.4
 40
0.4
 40
0.6
 40
0.6
 40
0.6
 40
0.6
 40
1.0
 40
1.0
 40
1.0
 40
1.0
 10
-75.56659
 20
116.32818
 30
0.0
 10
-73.90979
 20
116.32818
 30
0.0
 10
-72.56659
 20
114.98498
 30
0.0
 10
-72.56659
 20
113.32818
 30
0.0
 10
-72.56659
 20
113.32818
 30
0.0
 10
-72.56659
 20
111.67138
 30
0.0
 10
-73.90979
 20
110.32818
 30
0.0
 10
-75.56659
 20
110.32818
 30
0.0
 10
-75.56659
 20
110.32818
 30
0.0
 10
-77.22339
 20
110.32818
 30
0.0
 10
-78.56659
 20
111.67138
 30
0.0
 10
-78.56659
 20
113.32818
 30
0.0
 10
-78.56659
 20
113.32818
 30
0.0
 10
-78.56659
 20
114.98498
 30
0.0
 10
-77.22339
 20
116.32818
 30
0.0
 10
-75.56659
 20
116.32818
 30
0.0
  0
SPLINE
  5
42
330
1F
100
AcDbEntity
  8
layer 1
 62
   242
370
     9
100
AcDbSpline
210
0.0
220
0.0
230
1.0
 70
    11
 71
     3
 72
    20
 73
    16
 74
     0
 42
0.0000000001
 43
0.0000000001
 12
1.0
 22
0.0
 32
0.0
 13
1.0
 23
0.0
 33
0.0
 40
0.0
 40
0.0
 40
0.0
 40
0.0
 40
0.2
 40
0.2
 40
0.2
 40
0.2
 40
0.4
 40
0.4
 40
0.4
 40
0.4
 40
0.6
 40
0.6
 40
0.6
 40
0.6
 40
1.0
 40
1.0
 40
1.0
 40
1.0
 10
-75.56659
 20
114.57818
 30
0.0
 10
-74.87629
 20
114.57818
 30
0.0
 10
-74.31659
 20
114.01848
 30
0.0
 10
-74.31659
 20
113.32818
 30
0.0
 10
-74.31659
 20
113.32818
 30
0.0
 10
-74.31659
 20
112.63788
 30
0.0
 10
-74.87629
 20
112.07818
 30
0.0
 10
-75.56659
 20
112.07818
 30
0.0
 10
-75.56659
 20
112.07818
 30
0.0
 10
-76.25689
 20
112.07818
 30
0.0
 10
-76.81659
 20
112.63788
 30
0.0
 10
-76.81659
 20
113.32818
 30
0.0
 10
-76.81659
 20
113.32818
 30
0.0
 10
-76.81659
 20
114.01848
 30
0.0
 10
-76.25689
 20
114.57818
 30
0.0
 10
-75.56659
 20
114.57818
 30
0.0
  0
SPLINE
  5
43
330
1F
100
AcDbEntity
  8
layer 1
 62
   242
370
     9
100
AcDbSpline
210
0.0
220
0.0
230
1.0
 70
    11
 71
     3
 72
    20
 73
    16
 74
     0
 42
0.0000000001
 43
0.0000000001
 12
1.0
 22
0.0
 32
0.0
 13
1.0
 23
0.0
 33
0.0
 40
0.0
 40
0.0
 40
0.0
 40
0.0
 40
0.2
 40
0.2
 40
0.2
 40
0.2
 40
0.4
 40
0.4
 40
0.4
 40
0.4
 40
0.6
 40
0.6
 40
0.6
 40
0.6
 40
1.0
 40
1.0
 40
1.0
 40
1.0
 10
3.43341
 20
116.32818
 30
0.0
 10
5.09021
 20
116.32818
 30
0.0
 10
6.43341
 20
114.98498
 30
0.0
 10
6.43341
 20
113.32818
 30
0.0
 10
6.43341
 20
113.32818
 30
0.0
 10
6.43341
 20
111.67138
 30
0.0
 10
5.09021
 20
110.32818
 30
0.0
 10
3.43341
 20
110.32818
 30
0.0
 10
3.43341
 20
110.32818
 30
0.0
 10
1.77661
 20
110.32818
 30
0.0
 10
0.43341
 20
111.67138
 30
0.0
 10
0.43341
 20
113.32818
 30
0.0
 10
0.43341
 20
113.32818
 30
0.0
 10
0.43341
 20
114.98498
 30
0.0
 10
1.77661
 20
116.32818
 30
0.0
 10
3.43341
 20
116.32818
 30
0.0
  0
SPLINE
  5
44
330
1F
100
AcDbEntity
  8
layer 1
 62
   242
370
     9
100
AcDbSpline
210
0.0
220
0.0
230
1.0
 70
    11
 71
     3
 72
    20
 73
    16
 74
     0
 42
0.0000000001
 43
0.0000000001
 12
1.0
 22
0.0
 32
0.0
 13
1.0
 23
0.0
 33
0.0
 40
0.0
 40
0.0
 40
0.0
 40
0.0
 40
0.2
 40
0.2
 40
0.2
 40
0.2
 40
0.4
 40
0.4
 40
0.4
 40
0.4
 40
0.6
 40
0.6
 40
0.6
 40
0.6
 40
1.0
 40
1.0
 40
1.0
 40
1.0
 10
3.43341
 20
114.57818
 30
0.0
 10
4.12371
 20
114.57818
 30
0.0
 10
4.68341
 20
114.01848
 30
0.0
 10
4.68341
 20
113.32818
 30
0.0
 10
4.68341
 20
113.32818
 30
0.0
 10
4.68341
 20
112.63788
 30
0.0
 10
4.12371
 20
112.07818
 30
0.0
 10
3.43341
 20
112.07818
 30
0.0
 10
3.43341
 20
112.07818
 30
0.0
 10
2.74311
 20
112.07818
 30
0.0
 10
2.18341
 20
112.63788
 30
0.0
 10
2.18341
 20
113.32818
 30
0.0
 10
2.18341
 20
113.32818
 30
0.0
 10
2.18341
 20
114.01848
 30
0.0
 10
2.74311
 20
114.57818
 30
0.0
 10
3.43341
 20
114.57818
 30
0.0
  0
SPLINE
  5
45
330
1F
100
AcDbEntity
  8
layer 1
 62
   242
370
     9
100
AcDbSpline
210
0.0
220
0.0
230
1.0
 70
    11
 71
     3
 72
    20
 73
    16
 74
     0
 42
0.0000000001
 43
0.0000000001
 12
1.0
 22
0.0
 32
0.0
 13
1.0
 23
0.0
 33
0.0
 40
0.0
 40
0.0
 40
0.0
 40
0.0
 40
0.2
 40
0.2
 40
0.2
 40
0.2
 40
0.4
 40
0.4
 40
0.4
 40
0.4
 40
0.6
 40
0.6
 40
0.6
 40
0.6
 40
1.0
 40
1.0
 40
1.0
 40
1.0
 10
-75.56659
 20
46.32818
 30
0.0
 10
-73.90979
 20
46.32818
 30
0.0
 10
-72.56659
 20
44.98498
 30
0.0
 10
-72.56659
 20
43.32818
 30
0.0
 10
-72.56659
 20
43.32818
 30
0.0
 10
-72.56659
 20
41.67138
 30
0.0
 10
-73.90979
 20
40.32818
 30
0.0
 10
-75.56659
 20
40.32818
 30
0.0
 10
-75.56659
 20
40.32818
 30
0.0
 10
-77.22339
 20
40.32818
 30
0.0
 10
-78.56659
 20
41.67138
 30
0.0
 10
-78.56659
 20
43.32818
 30
0.0
 10
-78.56659
 20
43.32818
 30
0.0
 10
-78.56659
 20
44.98498
 30
0.0
 10
-77.22339
 20
46.32818
 30
0.0
 10
-75.56659
 20
46.32818
 30
0.0
  0
SPLINE
  5
46
330
1F
100
AcDbEntity
  8
layer 1
 62
   242
370
     9
100
AcDbSpline
210
0.0
220
0.0
230
1.0
 70
    11
 71
     3
 72
    20
 73
    16
 74
     0
 42
0.0000000001
 43
0.0000000001
 12
1.0
 22
0.0
 32
0.0
 13
1.0
 23
0.0
 33
0.0
 40
0.0
 40
0.0
 40
0.0
 40
0.0
 40
0.2
 40
0.2
 40
0.2
 40
0.2
 40
0.4
 40
0.4
 40
0.4
 40
0.4
 40
0.6
 40
0.6
 40
0.6
 40
0.6
 40
1.0
 40
1.0
 40
1.0
 40
1.0
 10
-75.56659
 20
44.57818
 30
0.0
 10
-74.87629
 20
44.57818
 30
0.0
 10
-74.31659
 20
44.01848
 30
0.0
 10
-74.31659
 20
43.32818
 30
0.0
 10
-74.31659
 20
43.32818
 30
0.0
 10
-74.31659
 20
42.63788
 30
0.0
 10
-74.87629
 20
42.07818
 30
0.0
 10
-75.56659
 20
42.07818
 30
0.0
 10
-75.56659
 20
42.07818
 30
0.0
 10
-76.25689
 20
42.07818
 30
0.0
 10
-76.81659
 20
42.63788
 30
0.0
 10
-76.81659
 20
43.32818
 30
0.0
 10
-76.81659
 20
43.32818
 30
0.0
 10
-76.81659
 20
44.01848
 30
0.0
 10
-76.25689
 20
44.57818
 30
0.0
 10
-75.56659
 20
44.57818
 30
0.0
  0
SPLINE
  5
47
330
1F
100
AcDbEntity
  8
layer 1
 62
   242
370
     9
100
AcDbSpline
210
0.0
220
0.0
230
1.0
 70
    11
 71
     3
 72
    20
 73
    16
 74
     0
 42
0.0000000001
 43
0.0000000001
 12
1.0
 22
0.0
 32
0.0
 13
1.0
 23
0.0
 33
0.0
 40
0.0
 40
0.0
 40
0.0
 40
0.0
 40
0.2
 40
0.2
 40
0.2
 40
0.2
 40
0.4
 40
0.4
 40
0.4
 40
0.4
 40
0.6
 40
0.6
 40
0.6
 40
0.6
 40
1.0
 40
1.0
 40
1.0
 40
1.0
 10
3.43341
 20
46.32818
 30
0.0
 10
5.09021
 20
46.32818
 30
0.0
 10
6.43341
 20
44.98498
 30
0.0
 10
6.43341
 20
43.32818
 30
0.0
 10
6.43341
 20
43.32818
 30
0.0
 10
6.43341
 20
41.67138
 30
0.0
 10
5.09021
 20
40.32818
 30
0.0
 10
3.43341
 20
40.32818
 30
0.0
 10
3.43341
 20
40.32818
 30
0.0
 10
1.77661
 20
40.32818
 30
0.0
 10
0.43341
 20
41.67138
 30
0.0
 10
0.43341
 20
43.32818
 30
0.0
 10
0.43341
 20
43.32818
 30
0.0
 10
0.43341
 20
44.98498
 30
0.0
 10
1.77661
 20
46.32818
 30
0.0
 10
3.43341
 20
46.32818
 30
0.0
  0
SPLINE
  5
48
330
1F
100
AcDbEntity
  8
layer 1
 62
   242
370
     9
100
AcDbSpline
210
0.0
220
0.0
230
1.0
 70
    11
 71
     3
 72
    20
 73
    16
 74
     0
 42
0.0000000001
 43
0.0000000001
 12
1.0
 22
0.0
 32
0.0
 13
1.0
 23
0.0
 33
0.0
 40
0.0
 40
0.0
 40
0.0
 40
0.0
 40
0.2
 40
0.2
 40
0.2
 40
0.2
 40
0.4
 40
0.4
 40
0.4
 40
0.4
 40
0.6
 40
0.6
 40
0.6
 40
0.6
 40
1.0
 40
1.0
 40
1.0
 40
1.0
 10
3.43341
 20
44.57818
 30
0.0
 10
4.12371
 20
44.57818
 30
0.0
 10
4.68341
 20
44.01848
 30
0.0
 10
4.68341
 20
43.32818
 30
0.0
 10
4.68341
 20
43.32818
 30
0.0
 10
4.68341
 20
42.63788
 30
0.0
 10
4.12371
 20
42.07818
 30
0.0
 10
3.43341
 20
42.07818
 30
0.0
 10
3.43341
 20
42.07818
 30
0.0
 10
2.74311
 20
42.07818
 30
0.0
 10
2.18341
 20
42.63788
 30
0.0
 10
2.18341
 20
43.32818
 30
0.0
 10
2.18341
 20
43.32818
 30
0.0
 10
2.18341
 20
44.01848
 30
0.0
 10
2.74311
 20
44.57818
 30
0.0
 10
3.43341
 20
44.57818
 30
0.0
  0
SPLINE
  5
49
330
1F
100
AcDbEntity
  8
layer 1
 62
   242
370
     9
100
AcDbSpline
210
0.0
220
0.0
230
1.0
 70
    11
 71
     3
 72
   404
 73
   400
 74
     0
 42
0.0000000001
 43
0.0000000001
 12
1.0
 22
0.0
 32
0.0
 13
1.0
 23
0.0
 33
0.0
 40
0.0
 40
0.0
 40
0.0
 40
0.0
 40
0.0099009900990099
 40
0.0099009900990099
 40
0.0099009900990099
 40
0.0099009900990099
 40
0.0198019801980198
 40
0.0198019801980198
 40
0.0198019801980198
 40
0.0198019801980198
 40
0.0297029702970297
 40
0.0297029702970297
 40
0.0297029702970297
 40
0.0297029702970297
 40
0.0396039603960396
 40
0.0396039603960396
 40
0.0396039603960396
 40
0.0396039603960396
 40
0.0495049504950495
 40
0.0495049504950495
 40
0.0495049504950495
 40
0.0495049504950495
 40
0.0594059405940594
 40
0.0594059405940594
 40
0.0594059405940594
 40
0.0594059405940594
 40
0.0693069306930693
 40
0.0693069306930693
 40
0.0693069306930693
 40
0.0693069306930693
 40
0.0792079207920792
 40
0.0792079207920792
 40
0.0792079207920792
 40
0.0792079207920792
 40
0.0891089108910891
 40
0.0891089108910891
 40
0.0891089108910891
 40
0.0891089108910891
 40
0.099009900990099
 40
0.099009900990099
 40
0.099009900990099
 40
0.099009900990099
 40
0.1089108910891089
 40
0.1089108910891089
 40
0.1089108910891089
 40
0.1089108910891089
 40
0.1188118811881188
 40
0.1188118811881188
 40
0.1188118811881188
 40
0.1188118811881188
 40
0.1287128712871287
 40
0.1287128712871287
 40
0.1287128712871287
 40
0.1287128712871287
 40
0.1386138613861386
 40
0.1386138613861386
 40
0.1386138613861386
 40
0.1386138613861386
 40
0.1485148514851485
 40
0.1485148514851485
 40
0.1485148514851485
 40
0.1485148514851485
 40
0.1584158415841584
 40
0.1584158415841584
 40
0.1584158415841584
 40
0.1584158415841584
 40
0.1683168316831683
 40
0.1683168316831683
 40
0.1683168316831683
 40
0.1683168316831683
 40
0.1782178217821782
 40
0.1782178217821782
 40
0.1782178217821782
 40
0.1782178217821782
 40
0.1881188118811881
 40
0.1881188118811881
 40
0.1881188118811881
 40
0.1881188118811881
 40
0.198019801980198
 40
0.198019801980198
 40
0.198019801980198
 40
0.198019801980198
 40
0.2079207920792079
 40
0.2079207920792079
 40
0.2079207920792079
 40
0.2079207920792079
 40
0.2178217821782178
 40
0.2178217821782178
 40
0.2178217821782178
 40
0.2178217821782178
 40
0.2277227722772277
 40
0.2277227722772277
 40
0.2277227722772277
 40
0.2277227722772277
 40
0.2376237623762376
 40
0.2376237623762376
 40
0.2376237623762376
 40
0.2376237623762376
 40
0.2475247524752475
 40
0.2475247524752475
 40
0.2475247524752475
 40
0.2475247524752475
 40
0.2574257425742574
 40
0.2574257425742574
 40
0.2574257425742574
 40
0.2574257425742574
 40
0.2673267326732673
 40
0.2673267326732673
 40
0.2673267326732673
 40
0.2673267326732673
 40
0.2772277227722773
 40
0.2772277227722773
 40
0.2772277227722773
 40
0.2772277227722773
 40
0.2871287128712871
 40
0.2871287128712871
 40
0.2871287128712871
 40
0.2871287128712871
 40
0.297029702970297
 40
0.297029702970297
 40
0.297029702970297
 40
0.297029702970297
 40
0.3069306930693069
 40
0.3069306930693069
 40
0.3069306930693069
 40
0.3069306930693069
 40
0.3168316831683168
 40
0.3168316831683168
 40
0.3168316831683168
 40
0.3168316831683168
 40
0.3267326732673267
 40
0.3267326732673267
 40
0.3267326732673267
 40
0.3267326732673267
 40
0.3366336633663367
 40
0.3366336633663367
 40
0.3366336633663367
 40
0.3366336633663367
 40
0.3465346534653465
 40
0.3465346534653465
 40
0.3465346534653465
 40
0.3465346534653465
 40
0.3564356435643564
 40
0.3564356435643564
 40
0.3564356435643564
 40
0.3564356435643564
 40
0.3663366336633663
 40
0.3663366336633663
 40
0.3663366336633663
 40
0.3663366336633663
 40
0.3762376237623762
 40
0.3762376237623762
 40
0.3762376237623762
 40
0.3762376237623762
 40
0.3861386138613861
 40
0.3861386138613861
 40
0.3861386138613861
 40
0.3861386138613861
 40
0.3960396039603961
 40
0.3960396039603961
 40
0.3960396039603961
 40
0.3960396039603961
 40
0.405940594059406
 40
0.405940594059406
 40
0.405940594059406
 40
0.405940594059406
 40
0.4158415841584158
 40
0.4158415841584158
 40
0.4158415841584158
 40
0.4158415841584158
 40
0.4257425742574257
 40
0.4257425742574257
 40
0.4257425742574257
 40
0.4257425742574257
 40
0.4356435643564356
 40
0.4356435643564356
 40
0.4356435643564356
 40
0.4356435643564356
 40
0.4455445544554456
 40
0.4455445544554456
 40
0.4455445544554456
 40
0.4455445544554456
 40
0.4554455445544555
 40
0.4554455445544555
 40
0.4554455445544555
 40
0.4554455445544555
 40
0.4653465346534654
 40
0.4653465346534654
 40
0.4653465346534654
 40
0.4653465346534654
 40
0.4752475247524752
 40
0.4752475247524752
 40
0.4752475247524752
 40
0.4752475247524752
 40
0.4851485148514851
 40
0.4851485148514851
 40
0.4851485148514851
 40
0.4851485148514851
 40
0.495049504950495
 40
0.495049504950495
 40
0.495049504950495
 40
0.495049504950495
 40
0.504950495049505
 40
0.504950495049505
 40
0.504950495049505
 40
0.504950495049505
 40
0.5148514851485149
 40
0.5148514851485149
 40
0.5148514851485149
 40
0.5148514851485149
 40
0.5247524752475248
 40
0.5247524752475248
 40
0.5247524752475248
 40
0.5247524752475248
 40
0.5346534653465347
 40
0.5346534653465347
 40
0.5346534653465347
 40
0.5346534653465347
 40
0.5445544554455446
 40
0.5445544554455446
 40
0.5445544554455446
 40
0.5445544554455446
 40
0.5544554455445545
 40
0.5544554455445545
 40
0.5544554455445545
 40
0.5544554455445545
 40
0.5643564356435643
 40
0.5643564356435643
 40
0.5643564356435643
 40
0.5643564356435643
 40
0.5742574257425742
 40
0.5742574257425742
 40
0.5742574257425742
 40
0.5742574257425742
 40
0.5841584158415841
 40
0.5841584158415841
 40
0.5841584158415841
 40
0.5841584158415841
 40
0.594059405940594
 40
0.594059405940594
 40
0.594059405940594
 40
0.594059405940594
 40
0.6039603960396039
 40
0.6039603960396039
 40
0.6039603960396039
 40
0.6039603960396039
 40
0.6138613861386139
 40
0.6138613861386139
 40
0.6138613861386139
 40
0.6138613861386139
 40
0.6237623762376238
 40
0.6237623762376238
 40
0.6237623762376238
 40
0.6237623762376238
 40
0.6336633663366337
 40
0.6336633663366337
 40
0.6336633663366337
 40
0.6336633663366337
 40
0.6435643564356436
 40
0.6435643564356436
 40
0.6435643564356436
 40
0.6435643564356436
 40
0.6534653465346535
 40
0.6534653465346535
 40
0.6534653465346535
 40
0.6534653465346535
 40
0.6633663366336634
 40
0.6633663366336634
 40
0.6633663366336634
 40
0.6633663366336634
 40
0.6732673267326733
 40
0.6732673267326733
 40
0.6732673267326733
 40
0.6732673267326733
 40
0.6831683168316832
 40
0.6831683168316832
 40
0.6831683168316832
 40
0.6831683168316832
 40
0.693069306930693
 40
0.693069306930693
 40
0.693069306930693
 40
0.693069306930693
 40
0.7029702970297029
 40
0.7029702970297029
 40
0.7029702970297029
 40
0.7029702970297029
 40
0.7128712871287128
 40
0.7128712871287128
 40
0.7128712871287128
 40
0.7128712871287128
 40
0.7227722772277227
 40
0.7227722772277227
 40
0.7227722772277227
 40
0.7227722772277227
 40
0.7326732673267327
 40
0.7326732673267327
 40
0.7326732673267327
 40
0.7326732673267327
 40
0.7425742574257426
 40
0.7425742574257426
 40
0.7425742574257426
 40
0.7425742574257426
 40
0.7524752475247525
 40
0.7524752475247525
 40
0.7524752475247525
 40
0.7524752475247525
 40
0.7623762376237624
 40
0.7623762376237624
 40
0.7623762376237624
 40
0.7623762376237624
 40
0.7722772277227723
 40
0.7722772277227723
 40
0.7722772277227723
 40
0.7722772277227723
 40
0.7821782178217822
 40
0.7821782178217822
 40
0.7821782178217822
 40
0.7821782178217822
 40
0.7920792079207921
 40
0.7920792079207921
 40
0.7920792079207921
 40
0.7920792079207921
 40
0.801980198019802
 40
0.801980198019802
 40
0.801980198019802
 40
0.801980198019802
 40
0.8118811881188119
 40
0.8118811881188119
 40
0.8118811881188119
 40
0.8118811881188119
 40
0.8217821782178217
 40
0.8217821782178217
 40
0.8217821782178217
 40
0.8217821782178217
 40
0.8316831683168316
 40
0.8316831683168316
 40
0.8316831683168316
 40
0.8316831683168316
 40
0.8415841584158416
 40
0.8415841584158416
 40
0.8415841584158416
 40
0.8415841584158416
 40
0.8514851485148515
 40
0.8514851485148515
 40
0.8514851485148515
 40
0.8514851485148515
 40
0.8613861386138614
 40
0.8613861386138614
 40
0.8613861386138614
 40
0.8613861386138614
 40
0.8712871287128713
 40
0.8712871287128713
 40
0.8712871287128713
 40
0.8712871287128713
 40
0.8811881188118812
 40
0.8811881188118812
 40
0.8811881188118812
 40
0.8811881188118812
 40
0.8910891089108911
 40
0.8910891089108911
 40
0.8910891089108911
 40
0.8910891089108911
 40
0.900990099009901
 40
0.900990099009901
 40
0.900990099009901
 40
0.900990099009901
 40
0.9108910891089109
 40
0.9108910891089109
 40
0.9108910891089109
 40
0.9108910891089109
 40
0.9207920792079208
 40
0.9207920792079208
 40
0.9207920792079208
 40
0.9207920792079208
 40
0.9306930693069307
 40
0.9306930693069307
 40
0.9306930693069307
 40
0.9306930693069307
 40
0.9405940594059405
 40
0.9405940594059405
 40
0.9405940594059405
 40
0.9405940594059405
 40
0.9504950495049505
 40
0.9504950495049505
 40
0.9504950495049505
 40
0.9504950495049505
 40
0.9603960396039604
 40
0.9603960396039604
 40
0.9603960396039604
 40
0.9603960396039604
 40
0.9702970297029703
 40
0.9702970297029703
 40
0.9702970297029703
 40
0.9702970297029703
 40
0.9801980198019802
 40
0.9801980198019802
 40
0.9801980198019802
 40
0.9801980198019802
 40
1.0
 40
1.0
 40
1.0
 40
1.0
 10
-77.59179
 20
121.07818
 30
0.0
 10
-77.59179
 20
121.07818
 30
0.0
 10
5.84071
 20
121.05898
 30
0.0
 10
5.84071
 20
121.05898
 30
0.0
 10
5.84071
 20
121.05898
 30
0.0
 10
5.84071
 20
121.05898
 30
0.0
 10
6.62181
 20
120.89868
 30
0.0
 10
6.62181
 20
120.89868
 30
0.0
 10
6.62181
 20
120.89868
 30
0.0
 10
6.62181
 20
120.89868
 30
0.0
 10
7.33931
 20
120.59428
 30
0.0
 10
7.33931
 20
120.59428
 30
0.0
 10
7.33931
 20
120.59428
 30
0.0
 10
7.33931
 20
120.59428
 30
0.0
 10
7.97681
 20
120.16288
 30
0.0
 10
7.97681
 20
120.16288
 30
0.0
 10
7.97681
 20
120.16288
 30
0.0
 10
7.97681
 20
120.16288
 30
0.0
 10
8.51811
 20
119.62158
 30
0.0
 10
8.51811
 20
119.62158
 30
0.0
 10
8.51811
 20
119.62158
 30
0.0
 10
8.51811
 20
119.62158
 30
0.0
 10
8.94951
 20
118.98408
 30
0.0
 10
8.94951
 20
118.98408
 30
0.0
 10
8.94951
 20
118.98408
 30
0.0
 10
8.94951
 20
118.98408
 30
0.0
 10
9.25391
 20
118.26658
 30
0.0
 10
9.25391
 20
118.26658
 30
0.0
 10
9.25391
 20
118.26658
 30
0.0
 10
9.25391
 20
118.26658
 30
0.0
 10
9.41421
 20
117.48548
 30
0.0
 10
9.41421
 20
117.48548
 30
0.0
 10
9.41421
 20
117.48548
 30
0.0
 10
9.41421
 20
117.48548
 30
0.0
 10
9.43341
 20
107.34118
 30
0.0
 10
9.43341
 20
107.34118
 30
0.0
 10
9.43341
 20
107.34118
 30
0.0
 10
9.43341
 20
107.34118
 30
0.0
 10
9.45981
 20
106.81948
 30
0.0
 10
9.45981
 20
106.81948
 30
0.0
 10
9.45981
 20
106.81948
 30
0.0
 10
9.54751
 20
106.13668
 30
0.0
 10
9.72441
 20
105.56708
 30
0.0
 10
10.03911
 20
104.95438
 30
0.0
 10
10.03911
 20
104.95438
 30
0.0
 10
10.03911
 20
104.95438
 30
0.0
 10
10.29071
 20
104.54158
 30
0.0
 10
10.29071
 20
104.54158
 30
0.0
 10
10.29071
 20
104.54158
 30
0.0
 10
10.73111
 20
103.92398
 30
0.0
 10
11.21041
 20
103.46568
 30
0.0
 10
11.85001
 20
103.05498
 30
0.0
 10
11.85001
 20
103.05498
 30
0.0
 10
11.85001
 20
103.05498
 30
0.0
 10
12.27531
 20
102.82308
 30
0.0
 10
12.27531
 20
102.82308
 30
0.0
 10
12.27531
 20
102.82308
 30
0.0
 10
12.90431
 20
102.53698
 30
0.0
 10
13.48721
 20
102.38808
 30
0.0
 10
14.17751
 20
102.33518
 30
0.0
 10
14.17751
 20
102.33518
 30
0.0
 10
14.64831
 20
102.32298
 30
0.0
 10
15.11881
 20
102.33268
 30
0.0
 10
15.59071
 20
102.30898
 30
0.0
 10
15.59071
 20
102.30898
 30
0.0
 10
15.59071
 20
102.30898
 30
0.0
 10
16.37181
 20
102.14868
 30
0.0
 10
16.37181
 20
102.14868
 30
0.0
 10
16.37181
 20
102.14868
 30
0.0
 10
16.37181
 20
102.14868
 30
0.0
 10
17.08931
 20
101.84428
 30
0.0
 10
17.08931
 20
101.84428
 30
0.0
 10
17.08931
 20
101.84428
 30
0.0
 10
17.08931
 20
101.84428
 30
0.0
 10
17.72681
 20
101.41288
 30
0.0
 10
17.72681
 20
101.41288
 30
0.0
 10
17.72681
 20
101.41288
 30
0.0
 10
17.72681
 20
101.41288
 30
0.0
 10
18.26811
 20
100.87158
 30
0.0
 10
18.26811
 20
100.87158
 30
0.0
 10
18.26811
 20
100.87158
 30
0.0
 10
18.26811
 20
100.87158
 30
0.0
 10
18.69951
 20
100.23408
 30
0.0
 10
18.69951
 20
100.23408
 30
0.0
 10
18.69951
 20
100.23408
 30
0.0
 10
18.69951
 20
100.23408
 30
0.0
 10
19.00391
 20
99.51658
 30
0.0
 10
19.00391
 20
99.51658
 30
0.0
 10
19.00391
 20
99.51658
 30
0.0
 10
19.00391
 20
99.51658
 30
0.0
 10
19.16421
 20
98.73548
 30
0.0
 10
19.16421
 20
98.73548
 30
0.0
 10
19.16421
 20
98.73548
 30
0.0
 10
19.16421
 20
98.73548
 30
0.0
 10
19.18341
 20
58.30298
 30
0.0
 10
19.18341
 20
58.30298
 30
0.0
 10
19.18341
 20
58.30298
 30
0.0
 10
19.18341
 20
58.30298
 30
0.0
 10
19.16421
 20
57.92118
 30
0.0
 10
19.16421
 20
57.92118
 30
0.0
 10
19.16421
 20
57.92118
 30
0.0
 10
19.16421
 20
57.92118
 30
0.0
 10
19.00391
 20
57.14028
 30
0.0
 10
19.00391
 20
57.14028
 30
0.0
 10
19.00391
 20
57.14028
 30
0.0
 10
19.00391
 20
57.14028
 30
0.0
 10
18.69951
 20
56.42258
 30
0.0
 10
18.69951
 20
56.42258
 30
0.0
 10
18.69951
 20
56.42258
 30
0.0
 10
18.69951
 20
56.42258
 30
0.0
 10
18.26821
 20
55.78528
 30
0.0
 10
18.26821
 20
55.78528
 30
0.0
 10
18.26821
 20
55.78528
 30
0.0
 10
18.26821
 20
55.78528
 30
0.0
 10
17.72661
 20
55.24378
 30
0.0
 10
17.72661
 20
55.24378
 30
0.0
 10
17.72661
 20
55.24378
 30
0.0
 10
17.72661
 20
55.24378
 30
0.0
 10
17.08961
 20
54.81278
 30
0.0
 10
17.08961
 20
54.81278
 30
0.0
 10
17.08961
 20
54.81278
 30
0.0
 10
17.08961
 20
54.81278
 30
0.0
 10
16.37181
 20
54.50808
 30
0.0
 10
16.37181
 20
54.50808
 30
0.0
 10
16.37181
 20
54.50808
 30
0.0
 10
16.37181
 20
54.50808
 30
0.0
 10
15.98811
 20
54.40878
 30
0.0
 10
15.98811
 20
54.40878
 30
0.0
 10
15.98811
 20
54.40878
 30
0.0
 10
15.98811
 20
54.40878
 30
0.0
 10
15.20891
 20
54.32818
 30
0.0
 10
15.20891
 20
54.32818
 30
0.0
 10
15.20891
 20
54.32818
 30
0.0
 10
14.77811
 20
54.32818
 30
0.0
 10
14.35281
 20
54.33478
 30
0.0
 10
13.92451
 20
54.30198
 30
0.0
 10
13.92451
 20
54.30198
 30
0.0
 10
13.41511
 20
54.23668
 30
0.0
 10
12.97261
 20
54.12288
 30
0.0
 10
12.49591
 20
53.93388
 30
0.0
 10
12.49591
 20
53.93388
 30
0.0
 10
12.49591
 20
53.93388
 30
0.0
 10
12.05941
 20
53.72278
 30
0.0
 10
12.05941
 20
53.72278
 30
0.0
 10
12.05941
 20
53.72278
 30
0.0
 10
11.40151
 20
53.34338
 30
0.0
 10
10.90021
 20
52.90838
 30
0.0
 10
10.43081
 20
52.31168
 30
0.0
 10
10.43081
 20
52.31168
 30
0.0
 10
10.43081
 20
52.31168
 30
0.0
 10
10.16021
 20
51.91198
 30
0.0
 10
10.16021
 20
51.91198
 30
0.0
 10
10.16021
 20
51.91198
 30
0.0
 10
9.77261
 20
51.24068
 30
0.0
 10
9.55861
 20
50.60658
 30
0.0
 10
9.45981
 20
49.83718
 30
0.0
 10
9.45981
 20
49.83718
 30
0.0
 10
9.45981
 20
49.83718
 30
0.0
 10
9.43341
 20
49.31518
 30
0.0
 10
9.43341
 20
49.31518
 30
0.0
 10
9.43341
 20
49.31518
 30
0.0
 10
9.43341
 20
49.31518
 30
0.0
 10
9.41421
 20
39.17118
 30
0.0
 10
9.41421
 20
39.17118
 30
0.0
 10
9.41421
 20
39.17118
 30
0.0
 10
9.41421
 20
39.17118
 30
0.0
 10
9.25391
 20
38.39028
 30
0.0
 10
9.25391
 20
38.39028
 30
0.0
 10
9.25391
 20
38.39028
 30
0.0
 10
9.25391
 20
38.39028
 30
0.0
 10
8.94951
 20
37.67258
 30
0.0
 10
8.94951
 20
37.67258
 30
0.0
 10
8.94951
 20
37.67258
 30
0.0
 10
8.94951
 20
37.67258
 30
0.0
 10
8.51821
 20
37.03528
 30
0.0
 10
8.51821
 20
37.03528
 30
0.0
 10
8.51821
 20
37.03528
 30
0.0
 10
8.51821
 20
37.03528
 30
0.0
 10
7.97661
 20
36.49378
 30
0.0
 10
7.97661
 20
36.49378
 30
0.0
 10
7.97661
 20
36.49378
 30
0.0
 10
7.97661
 20
36.49378
 30
0.0
 10
7.33961
 20
36.06278
 30
0.0
 10
7.33961
 20
36.06278
 30
0.0
 10
7.33961
 20
36.06278
 30
0.0
 10
7.33961
 20
36.06278
 30
0.0
 10
6.62181
 20
35.75808
 30
0.0
 10
6.62181
 20
35.75808
 30
0.0
 10
6.62181
 20
35.75808
 30
0.0
 10
6.62181
 20
35.75808
 30
0.0
 10
6.23811
 20
35.65878
 30
0.0
 10
6.23811
 20
35.65878
 30
0.0
 10
6.23811
 20
35.65878
 30
0.0
 10
6.23811
 20
35.65878
 30
0.0
 10
5.45891
 20
35.57818
 30
0.0
 10
5.45891
 20
35.57818
 30
0.0
 10
5.45891
 20
35.57818
 30
0.0
 10
5.45891
 20
35.57818
 30
0.0
 10
-77.97389
 20
35.59768
 30
0.0
 10
-77.97389
 20
35.59768
 30
0.0
 10
-77.97389
 20
35.59768
 30
0.0
 10
-77.97389
 20
35.59768
 30
0.0
 10
-78.37099
 20
35.65878
 30
0.0
 10
-78.37099
 20
35.65878
 30
0.0
 10
-78.37099
 20
35.65878
 30
0.0
 10
-78.37099
 20
35.65878
 30
0.0
 10
-79.12279
 20
35.89338
 30
0.0
 10
-79.12279
 20
35.89338
 30
0.0
 10
-79.12279
 20
35.89338
 30
0.0
 10
-79.12279
 20
35.89338
 30
0.0
 10
-79.80189
 20
36.26338
 30
0.0
 10
-79.80189
 20
36.26338
 30
0.0
 10
-79.80189
 20
36.26338
 30
0.0
 10
-79.80189
 20
36.26338
 30
0.0
 10
-80.39319
 20
36.75158
 30
0.0
 10
-80.39319
 20
36.75158
 30
0.0
 10
-80.39319
 20
36.75158
 30
0.0
 10
-80.39319
 20
36.75158
 30
0.0
 10
-80.88139
 20
37.34288
 30
0.0
 10
-80.88139
 20
37.34288
 30
0.0
 10
-80.88139
 20
37.34288
 30
0.0
 10
-80.88139
 20
37.34288
 30
0.0
 10
-81.25139
 20
38.02198
 30
0.0
 10
-81.25139
 20
38.02198
 30
0.0
 10
-81.25139
 20
38.02198
 30
0.0
 10
-81.25139
 20
38.02198
 30
0.0
 10
-81.48599
 20
38.77378
 30
0.0
 10
-81.48599
 20
38.77378
 30
0.0
 10
-81.48599
 20
38.77378
 30
0.0
 10
-81.48599
 20
38.77378
 30
0.0
 10
-81.56659
 20
39.55268
 30
0.0
 10
-81.56659
 20
39.55268
 30
0.0
 10
-81.56659
 20
39.55268
 30
0.0
 10
-81.56659
 20
39.55268
 30
0.0
 10
-81.57339
 20
49.58468
 30
0.0
 10
-81.57339
 20
49.58468
 30
0.0
 10
-81.57339
 20
49.58468
 30
0.0
 10
-81.57339
 20
49.58468
 30
0.0
 10
-81.62469
 20
50.08618
 30
0.0
 10
-81.62469
 20
50.08618
 30
0.0
 10
-81.62469
 20
50.08618
 30
0.0
 10
-81.74619
 20
50.76068
 30
0.0
 10
-81.95099
 20
51.31868
 30
0.0
 10
-82.29269
 20
51.91188
 30
0.0
 10
-82.29269
 20
51.91188
 30
0.0
 10
-82.29269
 20
51.91188
 30
0.0
 10
-82.56349
 20
52.31168
 30
0.0
 10
-82.56349
 20
52.31168
 30
0.0
 10
-82.56349
 20
52.31168
 30
0.0
 10
-83.03369
 20
52.90828
 30
0.0
 10
-83.53379
 20
53.34338
 30
0.0
 10
-84.19239
 20
53.72278
 30
0.0
 10
-84.19239
 20
53.72278
 30
0.0
 10
-84.19239
 20
53.72278
 30
0.0
 10
-84.62889
 20
53.93388
 30
0.0
 10
-84.62889
 20
53.93388
 30
0.0
 10
-84.62889
 20
53.93388
 30
0.0
 10
-85.28239
 20
54.19308
 30
0.0
 10
-85.87559
 20
54.31048
 30
0.0
 10
-86.57929
 20
54.32818
 30
0.0
 10
-86.57929
 20
54.32818
 30
0.0
 10
-86.57929
 20
54.32818
 30
0.0
 10
-87.72389
 20
54.34768
 30
0.0
 10
-87.72389
 20
54.34768
 30
0.0
 10
-87.72389
 20
54.34768
 30
0.0
 10
-87.72389
 20
54.34768
 30
0.0
 10
-88.12099
 20
54.40878
 30
0.0
 10
-88.12099
 20
54.40878
 30
0.0
 10
-88.12099
 20
54.40878
 30
0.0
 10
-88.12099
 20
54.40878
 30
0.0
 10
-88.87279
 20
54.64338
 30
0.0
 10
-88.87279
 20
54.64338
 30
0.0
 10
-88.87279
 20
54.64338
 30
0.0
 10
-88.87279
 20
54.64338
 30
0.0
 10
-89.55189
 20
55.01338
 30
0.0
 10
-89.55189
 20
55.01338
 30
0.0
 10
-89.55189
 20
55.01338
 30
0.0
 10
-89.55189
 20
55.01338
 30
0.0
 10
-90.14319
 20
55.50158
 30
0.0
 10
-90.14319
 20
55.50158
 30
0.0
 10
-90.14319
 20
55.50158
 30
0.0
 10
-90.14319
 20
55.50158
 30
0.0
 10
-90.63139
 20
56.09288
 30
0.0
 10
-90.63139
 20
56.09288
 30
0.0
 10
-90.63139
 20
56.09288
 30
0.0
 10
-90.63139
 20
56.09288
 30
0.0
 10
-91.00139
 20
56.77198
 30
0.0
 10
-91.00139
 20
56.77198
 30
0.0
 10
-91.00139
 20
56.77198
 30
0.0
 10
-91.00139
 20
56.77198
 30
0.0
 10
-91.23599
 20
57.52378
 30
0.0
 10
-91.23599
 20
57.52378
 30
0.0
 10
-91.23599
 20
57.52378
 30
0.0
 10
-91.23599
 20
57.52378
 30
0.0
 10
-91.31659
 20
58.30268
 30
0.0
 10
-91.31659
 20
58.30268
 30
0.0
 10
-91.31659
 20
58.30268
 30
0.0
 10
-91.31659
 20
58.30268
 30
0.0
 10
-91.29709
 20
98.73578
 30
0.0
 10
-91.29709
 20
98.73578
 30
0.0
 10
-91.29709
 20
98.73578
 30
0.0
 10
-91.29709
 20
98.73578
 30
0.0
 10
-91.23599
 20
99.13288
 30
0.0
 10
-91.23599
 20
99.13288
 30
0.0
 10
-91.23599
 20
99.13288
 30
0.0
 10
-91.23599
 20
99.13288
 30
0.0
 10
-91.00139
 20
99.88448
 30
0.0
 10
-91.00139
 20
99.88448
 30
0.0
 10
-91.00139
 20
99.88448
 30
0.0
 10
-91.00139
 20
99.88448
 30
0.0
 10
-90.63139
 20
100.56378
 30
0.0
 10
-90.63139
 20
100.56378
 30
0.0
 10
-90.63139
 20
100.56378
 30
0.0
 10
-90.63139
 20
100.56378
 30
0.0
 10
-90.14329
 20
101.15488
 30
0.0
 10
-90.14329
 20
101.15488
 30
0.0
 10
-90.14329
 20
101.15488
 30
0.0
 10
-90.14329
 20
101.15488
 30
0.0
 10
-89.55189
 20
101.64338
 30
0.0
 10
-89.55189
 20
101.64338
 30
0.0
 10
-89.55189
 20
101.64338
 30
0.0
 10
-89.55189
 20
101.64338
 30
0.0
 10
-88.87259
 20
102.01318
 30
0.0
 10
-88.87259
 20
102.01318
 30
0.0
 10
-88.87259
 20
102.01318
 30
0.0
 10
-88.87259
 20
102.01318
 30
0.0
 10
-88.12069
 20
102.24788
 30
0.0
 10
-88.12069
 20
102.24788
 30
0.0
 10
-88.12069
 20
102.24788
 30
0.0
 10
-88.12069
 20
102.24788
 30
0.0
 10
-87.72359
 20
102.30898
 30
0.0
 10
-87.72359
 20
102.30898
 30
0.0
 10
-87.72359
 20
102.30898
 30
0.0
 10
-87.16699
 20
102.33688
 30
0.0
 10
-86.61229
 20
102.31208
 30
0.0
 10
-86.05759
 20
102.35458
 30
0.0
 10
-86.05759
 20
102.35458
 30
0.0
 10
-85.54839
 20
102.41998
 30
0.0
 10
-85.10549
 20
102.53368
 30
0.0
 10
-84.62919
 20
102.72258
 30
0.0
 10
-84.62919
 20
102.72258
 30
0.0
 10
-84.62919
 20
102.72258
 30
0.0
 10
-84.19249
 20
102.93388
 30
0.0
 10
-84.19249
 20
102.93388
 30
0.0
 10
-84.19249
 20
102.93388
 30
0.0
 10
-83.53349
 20
103.31438
 30
0.0
 10
-83.03339
 20
103.74838
 30
0.0
 10
-82.56339
 20
104.34528
 30
0.0
 10
-82.56339
 20
104.34528
 30
0.0
 10
-82.56339
 20
104.34528
 30
0.0
 10
-82.29269
 20
104.74488
 30
0.0
 10
-82.29269
 20
104.74488
 30
0.0
 10
-82.29269
 20
104.74488
 30
0.0
 10
-81.95069
 20
105.33798
 30
0.0
 10
-81.74579
 20
105.89738
 30
0.0
 10
-81.62469
 20
106.57058
 30
0.0
 10
-81.62469
 20
106.57058
 30
0.0
 10
-81.59139
 20
106.83078
 30
0.0
 10
-81.57319
 20
107.07948
 30
0.0
 10
-81.56659
 20
107.34088
 30
0.0
 10
-81.56659
 20
107.34088
 30
0.0
 10
-81.56659
 20
107.34088
 30
0.0
 10
-81.54709
 20
117.48578
 30
0.0
 10
-81.54709
 20
117.48578
 30
0.0
 10
-81.54709
 20
117.48578
 30
0.0
 10
-81.54709
 20
117.48578
 30
0.0
 10
-81.48599
 20
117.88288
 30
0.0
 10
-81.48599
 20
117.88288
 30
0.0
 10
-81.48599
 20
117.88288
 30
0.0
 10
-81.48599
 20
117.88288
 30
0.0
 10
-81.25139
 20
118.63448
 30
0.0
 10
-81.25139
 20
118.63448
 30
0.0
 10
-81.25139
 20
118.63448
 30
0.0
 10
-81.25139
 20
118.63448
 30
0.0
 10
-80.88139
 20
119.31378
 30
0.0
 10
-80.88139
 20
119.31378
 30
0.0
 10
-80.88139
 20
119.31378
 30
0.0
 10
-80.88139
 20
119.31378
 30
0.0
 10
-80.39329
 20
119.90488
 30
0.0
 10
-80.39329
 20
119.90488
 30
0.0
 10
-80.39329
 20
119.90488
 30
0.0
 10
-80.39329
 20
119.90488
 30
0.0
 10
-79.80189
 20
120.39338
 30
0.0
 10
-79.80189
 20
120.39338
 30
0.0
 10
-79.80189
 20
120.39338
 30
0.0
 10
-79.80189
 20
120.39338
 30
0.0
 10
-79.12259
 20
120.76318
 30
0.0
 10
-79.12259
 20
120.76318
 30
0.0
 10
-79.12259
 20
120.76318
 30
0.0
 10
-79.12259
 20
120.76318
 30
0.0
 10
-78.37069
 20
120.99788
 30
0.0
 10
-78.37069
 20
120.99788
 30
0.0
 10
-78.37069
 20
120.99788
 30
0.0
 10
-78.37069
 20
120.99788
 30
0.0
 10
-77.97359
 20
121.05898
 30
0.0
 10
-77.97359
 20
121.05898
 30
0.0
 10
-77.97359
 20
121.05898
 30
0.0
 10
-77.97359
 20
121.05898
 30
0.0
 10
-77.59179
 20
121.07818
 30
0.0
 10
-77.59179
 20
121.07818
 30
0.0
  0
SPLINE
  5
4A
330
1F
100
AcDbEntity
  8
layer 1
 62
   242
370
     9
100
AcDbSpline
210
0.0
220
0.0
230
1.0
 70
    11
 71
     3
 72
    20
 73
    16
 74
     0
 42
0.0000000001
 43
0.0000000001
 12
1.0
 22
0.0
 32
0.0
 13
1.0
 23
0.0
 33
0.0
 40
0.0
 40
0.0
 40
0.0
 40
0.0
 40
0.2
 40
0.2
 40
0.2
 40
0.2
 40
0.4
 40
0.4
 40
0.4
 40
0.4
 40
0.6
 40
0.6
 40
0.6
 40
0.6
 40
1.0
 40
1.0
 40
1.0
 40
1.0
 10
-85.56659
 20
117.32818
 30
0.0
 10
-85.56659
 20
116.36168
 30
0.0
 10
-86.35009
 20
115.57818
 30
0.0
 10
-87.31659
 20
115.57818
 30
0.0
 10
-87.31659
 20
115.57818
 30
0.0
 10
-88.28309
 20
115.57818
 30
0.0
 10
-89.06659
 20
116.36168
 30
0.0
 10
-89.06659
 20
117.32818
 30
0.0
 10
-89.06659
 20
117.32818
 30
0.0
 10
-89.06659
 20
118.29468
 30
0.0
 10
-88.28309
 20
119.07818
 30
0.0
 10
-87.31659
 20
119.07818
 30
0.0
 10
-87.31659
 20
119.07818
 30
0.0
 10
-86.35009
 20
119.07818
 30
0.0
 10
-85.56659
 20
118.29468
 30
0.0
 10
-85.56659
 20
117.32818
 30
0.0
  0
SPLINE
  5
4B
330
1F
100
AcDbEntity
  8
layer 1
 62
   242
370
     9
100
AcDbSpline
210
0.0
220
0.0
230
1.0
 70
    11
 71
     3
 72
    20
 73
    16
 74
     0
 42
0.0000000001
 43
0.0000000001
 12
1.0
 22
0.0
 32
0.0
 13
1.0
 23
0.0
 33
0.0
 40
0.0
 40
0.0
 40
0.0
 40
0.0
 40
0.2
 40
0.2
 40
0.2
 40
0.2
 40
0.4
 40
0.4
 40
0.4
 40
0.4
 40
0.6
 40
0.6
 40
0.6
 40
0.6
 40
1.0
 40
1.0
 40
1.0
 40
1.0
 10
-85.56659
 20
39.32818
 30
0.0
 10
-85.56659
 20
38.36168
 30
0.0
 10
-86.35009
 20
37.57818
 30
0.0
 10
-87.31659
 20
37.57818
 30
0.0
 10
-87.31659
 20
37.57818
 30
0.0
 10
-88.28309
 20
37.57818
 30
0.0
 10
-89.06659
 20
38.36168
 30
0.0
 10
-89.06659
 20
39.32818
 30
0.0
 10
-89.06659
 20
39.32818
 30
0.0
 10
-89.06659
 20
40.29468
 30
0.0
 10
-88.28309
 20
41.07818
 30
0.0
 10
-87.31659
 20
41.07818
 30
0.0
 10
-87.31659
 20
41.07818
 30
0.0
 10
-86.35009
 20
41.07818
 30
0.0
 10
-85.56659
 20
40.29468
 30
0.0
 10
-85.56659
 20
39.32818
 30
0.0
  0
SPLINE
  5
4C
330
1F
100
AcDbEntity
  8
layer 1
 62
   242
370
     9
100
AcDbSpline
210
0.0
220
0.0
230
1.0
 70
    11
 71
     3
 72
    20
 73
    16
 74
     0
 42
0.0000000001
 43
0.0000000001
 12
1.0
 22
0.0
 32
0.0
 13
1.0
 23
0.0
 33
0.0
 40
0.0
 40
0.0
 40
0.0
 40
0.0
 40
0.2
 40
0.2
 40
0.2
 40
0.2
 40
0.4
 40
0.4
 40
0.4
 40
0.4
 40
0.6
 40
0.6
 40
0.6
 40
0.6
 40
1.0
 40
1.0
 40
1.0
 40
1.0
 10
16.93341
 20
117.32818
 30
0.0
 10
16.93341
 20
116.36168
 30
0.0
 10
16.14991
 20
115.57818
 30
0.0
 10
15.18341
 20
115.57818
 30
0.0
 10
15.18341
 20
115.57818
 30
0.0
 10
14.21691
 20
115.57818
 30
0.0
 10
13.43341
 20
116.36168
 30
0.0
 10
13.43341
 20
117.32818
 30
0.0
 10
13.43341
 20
117.32818
 30
0.0
 10
13.43341
 20
118.29468
 30
0.0
 10
14.21691
 20
119.07818
 30
0.0
 10
15.18341
 20
119.07818
 30
0.0
 10
15.18341
 20
119.07818
 30
0.0
 10
16.14991
 20
119.07818
 30
0.0
 10
16.93341
 20
118.29468
 30
0.0
 10
16.93341
 20
117.32818
 30
0.0
  0
SPLINE
  5
4D
330
1F
100
AcDbEntity
  8
layer 1
 62
   242
370
     9
100
AcDbSpline
210
0.0
220
0.0
230
1.0
 70
    11
 71
     3
 72
    20
 73
    16
 74
     0
 42
0.0000000001
 43
0.0000000001
 12
1.0
 22
0.0
 32
0.0
 13
1.0
 23
0.0
 33
0.0
 40
0.0
 40
0.0
 40
0.0
 40
0.0
 40
0.2
 40
0.2
 40
0.2
 40
0.2
 40
0.4
 40
0.4
 40
0.4
 40
0.4
 40
0.6
 40
0.6
 40
0.6
 40
0.6
 40
1.0
 40
1.0
 40
1.0
 40
1.0
 10
16.93341
 20
39.32818
 30
0.0
 10
16.93341
 20
38.36168
 30
0.0
 10
16.14991
 20
37.57818
 30
0.0
 10
15.18341
 20
37.57818
 30
0.0
 10
15.18341
 20
37.57818
 30
0.0
 10
14.21691
 20
37.57818
 30
0.0
 10
13.43341
 20
38.36168
 30
0.0
 10
13.43341
 20
39.32818
 30
0.0
 10
13.43341
 20
39.32818
 30
0.0
 10
13.43341
 20
40.29468
 30
0.0
 10
14.21691
 20
41.07818
 30
0.0
 10
15.18341
 20
41.07818
 30
0.0
 10
15.18341
 20
41.07818
 30
0.0
 10
16.14991
 20
41.07818
 30
0.0
 10
16.93341
 20
40.29468
 30
0.0
 10
16.93341
 20
39.32818
 30
0.0
  0
SPLINE
  5
4E
330
1F
100
AcDbEntity
  8
layer 1
 62
   242
370
     9
100
AcDbSpline
210
0.0
220
0.0
230
1.0
 70
    11
 71
     3
 72
    72
 73
    68
 74
     0
 42
0.0000000001
 43
0.0000000001
 12
1.0
 22
0.0
 32
0.0
 13
1.0
 23
0.0
 33
0.0
 40
0.0
 40
0.0
 40
0.0
 40
0.0
 40
0.0555555555555556
 40
0.0555555555555556
 40
0.0555555555555556
 40
0.0555555555555556
 40
0.1111111111111111
 40
0.1111111111111111
 40
0.1111111111111111
 40
0.1111111111111111
 40
0.1666666666666667
 40
0.1666666666666667
 40
0.1666666666666667
 40
0.1666666666666667
 40
0.2222222222222222
 40
0.2222222222222222
 40
0.2222222222222222
 40
0.2222222222222222
 40
0.2777777777777778
 40
0.2777777777777778
 40
0.2777777777777778
 40
0.2777777777777778
 40
0.3333333333333333
 40
0.3333333333333333
 40
0.3333333333333333
 40
0.3333333333333333
 40
0.3888888888888889
 40
0.3888888888888889
 40
0.3888888888888889
 40
0.3888888888888889
 40
0.4444444444444444
 40
0.4444444444444444
 40
0.4444444444444444
 40
0.4444444444444444
 40
0.5
 40
0.5
 40
0.5
 40
0.5
 40
0.5555555555555556
 40
0.5555555555555556
 40
0.5555555555555556
 40
0.5555555555555556
 40
0.6111111111111112
 40
0.6111111111111112
 40
0.6111111111111112
 40
0.6111111111111112
 40
0.6666666666666666
 40
0.6666666666666666
 40
0.6666666666666666
 40
0.6666666666666666
 40
0.7222222222222222
 40
0.7222222222222222
 40
0.7222222222222222
 40
0.7222222222222222
 40
0.7777777777777778
 40
0.7777777777777778
 40
0.7777777777777778
 40
0.7777777777777778
 40
0.8333333333333334
 40
0.8333333333333334
 40
0.8333333333333334
 40
0.8333333333333334
 40
0.8888888888888888
 40
0.8888888888888888
 40
0.8888888888888888
 40
0.8888888888888888
 40
1.0
 40
1.0
 40
1.0
 40
1.0
 10
20.33341
 20
57.63078
 30
0.0
 10
20.33341
 20
57.63078
 30
0.0
 10
20.33341
 20
42.40068
 30
0.0
 10
20.33341
 20
42.40068
 30
0.0
 10
20.33341
 20
42.40068
 30
0.0
 10
19.28361
 20
44.15218
 30
0.0
 10
17.36671
 20
45.32858
 30
0.0
 10
15.18331
 20
45.32858
 30
0.0
 10
15.18331
 20
45.32858
 30
0.0
 10
13.36541
 20
45.32858
 30
0.0
 10
11.73191
 20
44.51328
 30
0.0
 10
10.63001
 20
43.22928
 30
0.0
 10
10.63001
 20
43.22928
 30
0.0
 10
10.63001
 20
43.22928
 30
0.0
 10
10.65551
 20
49.72608
 30
0.0
 10
10.65551
 20
49.72608
 30
0.0
 10
10.65551
 20
49.72608
 30
0.0
 10
10.69291
 20
50.00158
 30
0.0
 10
10.75321
 20
50.26458
 30
0.0
 10
10.83821
 20
50.52868
 30
0.0
 10
10.83821
 20
50.52868
 30
0.0
 10
10.96701
 20
50.89658
 30
0.0
 10
11.12531
 20
51.22398
 30
0.0
 10
11.35771
 20
51.54168
 30
0.0
 10
11.35771
 20
51.54168
 30
0.0
 10
11.53601
 20
51.77118
 30
0.0
 10
11.72131
 20
51.97478
 30
0.0
 10
11.93271
 20
52.17388
 30
0.0
 10
11.93271
 20
52.17388
 30
0.0
 10
12.58101
 20
52.75048
 30
0.0
 10
13.42471
 20
53.08538
 30
0.0
 10
14.29061
 20
53.12088
 30
0.0
 10
14.29061
 20
53.12088
 30
0.0
 10
14.54171
 20
53.12928
 30
0.0
 10
14.79261
 20
53.12918
 30
0.0
 10
15.04451
 20
53.12858
 30
0.0
 10
15.04451
 20
53.12858
 30
0.0
 10
15.44121
 20
53.12768
 30
0.0
 10
15.83541
 20
53.18658
 30
0.0
 10
16.23071
 20
53.22748
 30
0.0
 10
16.23071
 20
53.22748
 30
0.0
 10
16.23071
 20
53.22748
 30
0.0
 10
17.20991
 20
53.53308
 30
0.0
 10
17.20991
 20
53.53308
 30
0.0
 10
17.20991
 20
53.53308
 30
0.0
 10
17.20991
 20
53.53308
 30
0.0
 10
18.09391
 20
54.01468
 30
0.0
 10
18.09391
 20
54.01468
 30
0.0
 10
18.09391
 20
54.01468
 30
0.0
 10
18.09391
 20
54.01468
 30
0.0
 10
18.86241
 20
54.64918
 30
0.0
 10
18.86241
 20
54.64918
 30
0.0
 10
18.86241
 20
54.64918
 30
0.0
 10
18.86241
 20
54.64918
 30
0.0
 10
19.49691
 20
55.41768
 30
0.0
 10
19.49691
 20
55.41768
 30
0.0
 10
19.49691
 20
55.41768
 30
0.0
 10
19.49691
 20
55.41768
 30
0.0
 10
19.97851
 20
56.30168
 30
0.0
 10
19.97851
 20
56.30168
 30
0.0
 10
19.97851
 20
56.30168
 30
0.0
 10
19.97851
 20
56.30168
 30
0.0
 10
20.27511
 20
57.25228
 30
0.0
 10
20.27511
 20
57.25228
 30
0.0
 10
20.27511
 20
57.25228
 30
0.0
 10
20.27511
 20
57.25228
 30
0.0
 10
20.33341
 20
57.63078
 30
0.0
 10
20.33341
 20
57.63078
 30
0.0
  0
SPLINE
  5
4F
330
1F
100
AcDbEntity
  8
layer 1
 62
   242
370
     9
100
AcDbSpline
210
0.0
220
0.0
230
1.0
 70
    11
 71
     3
 72
    76
 73
    72
 74
     0
 42
0.0000000001
 43
0.0000000001
 12
1.0
 22
0.0
 32
0.0
 13
1.0
 23
0.0
 33
0.0
 40
0.0
 40
0.0
 40
0.0
 40
0.0
 40
0.0526315789473684
 40
0.0526315789473684
 40
0.0526315789473684
 40
0.0526315789473684
 40
0.1052631578947368
 40
0.1052631578947368
 40
0.1052631578947368
 40
0.1052631578947368
 40
0.1578947368421053
 40
0.1578947368421053
 40
0.1578947368421053
 40
0.1578947368421053
 40
0.2105263157894737
 40
0.2105263157894737
 40
0.2105263157894737
 40
0.2105263157894737
 40
0.2631578947368421
 40
0.2631578947368421
 40
0.2631578947368421
 40
0.2631578947368421
 40
0.3157894736842105
 40
0.3157894736842105
 40
0.3157894736842105
 40
0.3157894736842105
 40
0.3684210526315789
 40
0.3684210526315789
 40
0.3684210526315789
 40
0.3684210526315789
 40
0.4210526315789473
 40
0.4210526315789473
 40
0.4210526315789473
 40
0.4210526315789473
 40
0.4736842105263158
 40
0.4736842105263158
 40
0.4736842105263158
 40
0.4736842105263158
 40
0.5263157894736842
 40
0.5263157894736842
 40
0.5263157894736842
 40
0.5263157894736842
 40
0.5789473684210527
 40
0.5789473684210527
 40
0.5789473684210527
 40
0.5789473684210527
 40
0.631578947368421
 40
0.631578947368421
 40
0.631578947368421
 40
0.631578947368421
 40
0.6842105263157895
 40
0.6842105263157895
 40
0.6842105263157895
 40
0.6842105263157895
 40
0.7368421052631579
 40
0.7368421052631579
 40
0.7368421052631579
 40
0.7368421052631579
 40
0.7894736842105263
 40
0.7894736842105263
 40
0.7894736842105263
 40
0.7894736842105263
 40
0.8421052631578947
 40
0.8421052631578947
 40
0.8421052631578947
 40
0.8421052631578947
 40
0.8947368421052632
 40
0.8947368421052632
 40
0.8947368421052632
 40
0.8947368421052632
 40
1.0
 40
1.0
 40
1.0
 40
1.0
 10
20.33341
 20
114.25688
 30
0.0
 10
20.33341
 20
114.25688
 30
0.0
 10
20.33341
 20
98.89878
 30
0.0
 10
20.33341
 20
98.89878
 30
0.0
 10
20.33341
 20
98.89878
 30
0.0
 10
20.33341
 20
98.89878
 30
0.0
 10
20.28411
 20
99.37548
 30
0.0
 10
20.28411
 20
99.37548
 30
0.0
 10
20.28411
 20
99.37548
 30
0.0
 10
20.28411
 20
99.37548
 30
0.0
 10
19.97851
 20
100.35468
 30
0.0
 10
19.97851
 20
100.35468
 30
0.0
 10
19.97851
 20
100.35468
 30
0.0
 10
19.97851
 20
100.35468
 30
0.0
 10
19.49691
 20
101.23868
 30
0.0
 10
19.49691
 20
101.23868
 30
0.0
 10
19.49691
 20
101.23868
 30
0.0
 10
19.49691
 20
101.23868
 30
0.0
 10
18.86241
 20
102.00718
 30
0.0
 10
18.86241
 20
102.00718
 30
0.0
 10
18.86241
 20
102.00718
 30
0.0
 10
18.86241
 20
102.00718
 30
0.0
 10
18.09391
 20
102.64168
 30
0.0
 10
18.09391
 20
102.64168
 30
0.0
 10
18.09391
 20
102.64168
 30
0.0
 10
18.09391
 20
102.64168
 30
0.0
 10
17.20991
 20
103.12328
 30
0.0
 10
17.20991
 20
103.12328
 30
0.0
 10
17.20991
 20
103.12328
 30
0.0
 10
17.20991
 20
103.12328
 30
0.0
 10
16.25931
 20
103.41988
 30
0.0
 10
16.25931
 20
103.41988
 30
0.0
 10
16.25931
 20
103.41988
 30
0.0
 10
16.25931
 20
103.41988
 30
0.0
 10
15.69261
 20
103.50708
 30
0.0
 10
15.69261
 20
103.50708
 30
0.0
 10
15.69261
 20
103.50708
 30
0.0
 10
14.95611
 20
103.51958
 30
0.0
 10
14.22371
 20
103.48098
 30
0.0
 10
13.50591
 20
103.65248
 30
0.0
 10
13.50591
 20
103.65248
 30
0.0
 10
13.17051
 20
103.74058
 30
0.0
 10
12.85861
 20
103.85548
 30
0.0
 10
12.55811
 20
104.03238
 30
0.0
 10
12.55811
 20
104.03238
 30
0.0
 10
12.28601
 20
104.20108
 30
0.0
 10
12.04231
 20
104.38378
 30
0.0
 10
11.80931
 20
104.60208
 30
0.0
 10
11.80931
 20
104.60208
 30
0.0
 10
11.55341
 20
104.85378
 30
0.0
 10
11.32491
 20
105.12078
 30
0.0
 10
11.14781
 20
105.43478
 30
0.0
 10
11.14781
 20
105.43478
 30
0.0
 10
10.93071
 20
105.83838
 30
0.0
 10
10.78601
 20
106.23198
 30
0.0
 10
10.69201
 20
106.67948
 30
0.0
 10
10.69201
 20
106.67948
 30
0.0
 10
10.69201
 20
106.67948
 30
0.0
 10
10.64021
 20
107.13328
 30
0.0
 10
10.64021
 20
107.13328
 30
0.0
 10
10.64021
 20
107.13328
 30
0.0
 10
10.64021
 20
107.13328
 30
0.0
 10
10.63591
 20
113.42138
 30
0.0
 10
10.63591
 20
113.42138
 30
0.0
 10
10.63591
 20
113.42138
 30
0.0
 10
11.73771
 20
112.14148
 30
0.0
 10
13.36871
 20
111.32848
 30
0.0
 10
15.18331
 20
111.32848
 30
0.0
 10
15.18331
 20
111.32848
 30
0.0
 10
17.36671
 20
111.32848
 30
0.0
 10
19.28361
 20
112.50538
 30
0.0
 10
20.33341
 20
114.25688
 30
0.0
  0
SPLINE
  5
50
330
1F
100
AcDbEntity
  8
layer 1
 62
   242
370
     9
100
AcDbSpline
210
0.0
220
0.0
230
1.0
 70
    11
 71
     3
 72
    72
 73
    68
 74
     0
 42
0.0000000001
 43
0.0000000001
 12
1.0
 22
0.0
 32
0.0
 13
1.0
 23
0.0
 33
0.0
 40
0.0
 40
0.0
 40
0.0
 40
0.0
 40
0.0555555555555556
 40
0.0555555555555556
 40
0.0555555555555556
 40
0.0555555555555556
 40
0.1111111111111111
 40
0.1111111111111111
 40
0.1111111111111111
 40
0.1111111111111111
 40
0.1666666666666667
 40
0.1666666666666667
 40
0.1666666666666667
 40
0.1666666666666667
 40
0.2222222222222222
 40
0.2222222222222222
 40
0.2222222222222222
 40
0.2222222222222222
 40
0.2777777777777778
 40
0.2777777777777778
 40
0.2777777777777778
 40
0.2777777777777778
 40
0.3333333333333333
 40
0.3333333333333333
 40
0.3333333333333333
 40
0.3333333333333333
 40
0.3888888888888889
 40
0.3888888888888889
 40
0.3888888888888889
 40
0.3888888888888889
 40
0.4444444444444444
 40
0.4444444444444444
 40
0.4444444444444444
 40
0.4444444444444444
 40
0.5
 40
0.5
 40
0.5
 40
0.5
 40
0.5555555555555556
 40
0.5555555555555556
 40
0.5555555555555556
 40
0.5555555555555556
 40
0.6111111111111112
 40
0.6111111111111112
 40
0.6111111111111112
 40
0.6111111111111112
 40
0.6666666666666666
 40
0.6666666666666666
 40
0.6666666666666666
 40
0.6666666666666666
 40
0.7222222222222222
 40
0.7222222222222222
 40
0.7222222222222222
 40
0.7222222222222222
 40
0.7777777777777778
 40
0.7777777777777778
 40
0.7777777777777778
 40
0.7777777777777778
 40
0.8333333333333334
 40
0.8333333333333334
 40
0.8333333333333334
 40
0.8333333333333334
 40
0.8888888888888888
 40
0.8888888888888888
 40
0.8888888888888888
 40
0.8888888888888888
 40
1.0
 40
1.0
 40
1.0
 40
1.0
 10
-92.46659
 20
57.63078
 30
0.0
 10
-92.46659
 20
57.63078
 30
0.0
 10
-92.46659
 20
42.40068
 30
0.0
 10
-92.46659
 20
42.40068
 30
0.0
 10
-92.46659
 20
42.40068
 30
0.0
 10
-91.41679
 20
44.15218
 30
0.0
 10
-89.49989
 20
45.32858
 30
0.0
 10
-87.31649
 20
45.32858
 30
0.0
 10
-87.31649
 20
45.32858
 30
0.0
 10
-85.49859
 20
45.32858
 30
0.0
 10
-83.86509
 20
44.51328
 30
0.0
 10
-82.76319
 20
43.22928
 30
0.0
 10
-82.76319
 20
43.22928
 30
0.0
 10
-82.76319
 20
43.22928
 30
0.0
 10
-82.78869
 20
49.72608
 30
0.0
 10
-82.78869
 20
49.72608
 30
0.0
 10
-82.78869
 20
49.72608
 30
0.0
 10
-82.82609
 20
50.00158
 30
0.0
 10
-82.88639
 20
50.26458
 30
0.0
 10
-82.97139
 20
50.52868
 30
0.0
 10
-82.97139
 20
50.52868
 30
0.0
 10
-83.10019
 20
50.89658
 30
0.0
 10
-83.25849
 20
51.22398
 30
0.0
 10
-83.49089
 20
51.54168
 30
0.0
 10
-83.49089
 20
51.54168
 30
0.0
 10
-83.66919
 20
51.77118
 30
0.0
 10
-83.85449
 20
51.97478
 30
0.0
 10
-84.06589
 20
52.17388
 30
0.0
 10
-84.06589
 20
52.17388
 30
0.0
 10
-84.71419
 20
52.75048
 30
0.0
 10
-85.55789
 20
53.08538
 30
0.0
 10
-86.42379
 20
53.12088
 30
0.0
 10
-86.42379
 20
53.12088
 30
0.0
 10
-86.67489
 20
53.12928
 30
0.0
 10
-86.92579
 20
53.12918
 30
0.0
 10
-87.17769
 20
53.12858
 30
0.0
 10
-87.17769
 20
53.12858
 30
0.0
 10
-87.57439
 20
53.12768
 30
0.0
 10
-87.96859
 20
53.18658
 30
0.0
 10
-88.36389
 20
53.22748
 30
0.0
 10
-88.36389
 20
53.22748
 30
0.0
 10
-88.36389
 20
53.22748
 30
0.0
 10
-89.34309
 20
53.53308
 30
0.0
 10
-89.34309
 20
53.53308
 30
0.0
 10
-89.34309
 20
53.53308
 30
0.0
 10
-89.34309
 20
53.53308
 30
0.0
 10
-90.22709
 20
54.01468
 30
0.0
 10
-90.22709
 20
54.01468
 30
0.0
 10
-90.22709
 20
54.01468
 30
0.0
 10
-90.22709
 20
54.01468
 30
0.0
 10
-90.99559
 20
54.64918
 30
0.0
 10
-90.99559
 20
54.64918
 30
0.0
 10
-90.99559
 20
54.64918
 30
0.0
 10
-90.99559
 20
54.64918
 30
0.0
 10
-91.63009
 20
55.41768
 30
0.0
 10
-91.63009
 20
55.41768
 30
0.0
 10
-91.63009
 20
55.41768
 30
0.0
 10
-91.63009
 20
55.41768
 30
0.0
 10
-92.11169
 20
56.30168
 30
0.0
 10
-92.11169
 20
56.30168
 30
0.0
 10
-92.11169
 20
56.30168
 30
0.0
 10
-92.11169
 20
56.30168
 30
0.0
 10
-92.40829
 20
57.25228
 30
0.0
 10
-92.40829
 20
57.25228
 30
0.0
 10
-92.40829
 20
57.25228
 30
0.0
 10
-92.40829
 20
57.25228
 30
0.0
 10
-92.46659
 20
57.63078
 30
0.0
 10
-92.46659
 20
57.63078
 30
0.0
  0
SPLINE
  5
51
330
1F
100
AcDbEntity
  8
layer 1
 62
   242
370
     9
100
AcDbSpline
210
0.0
220
0.0
230
1.0
 70
    11
 71
     3
 72
    76
 73
    72
 74
     0
 42
0.0000000001
 43
0.0000000001
 12
1.0
 22
0.0
 32
0.0
 13
1.0
 23
0.0
 33
0.0
 40
0.0
 40
0.0
 40
0.0
 40
0.0
 40
0.0526315789473684
 40
0.0526315789473684
 40
0.0526315789473684
 40
0.0526315789473684
 40
0.1052631578947368
 40
0.1052631578947368
 40
0.1052631578947368
 40
0.1052631578947368
 40
0.1578947368421053
 40
0.1578947368421053
 40
0.1578947368421053
 40
0.1578947368421053
 40
0.2105263157894737
 40
0.2105263157894737
 40
0.2105263157894737
 40
0.2105263157894737
 40
0.2631578947368421
 40
0.2631578947368421
 40
0.2631578947368421
 40
0.2631578947368421
 40
0.3157894736842105
 40
0.3157894736842105
 40
0.3157894736842105
 40
0.3157894736842105
 40
0.3684210526315789
 40
0.3684210526315789
 40
0.3684210526315789
 40
0.3684210526315789
 40
0.4210526315789473
 40
0.4210526315789473
 40
0.4210526315789473
 40
0.4210526315789473
 40
0.4736842105263158
 40
0.4736842105263158
 40
0.4736842105263158
 40
0.4736842105263158
 40
0.5263157894736842
 40
0.5263157894736842
 40
0.5263157894736842
 40
0.5263157894736842
 40
0.5789473684210527
 40
0.5789473684210527
 40
0.5789473684210527
 40
0.5789473684210527
 40
0.631578947368421
 40
0.631578947368421
 40
0.631578947368421
 40
0.631578947368421
 40
0.6842105263157895
 40
0.6842105263157895
 40
0.6842105263157895
 40
0.6842105263157895
 40
0.7368421052631579
 40
0.7368421052631579
 40
0.7368421052631579
 40
0.7368421052631579
 40
0.7894736842105263
 40
0.7894736842105263
 40
0.7894736842105263
 40
0.7894736842105263
 40
0.8421052631578947
 40
0.8421052631578947
 40
0.8421052631578947
 40
0.8421052631578947
 40
0.8947368421052632
 40
0.8947368421052632
 40
0.8947368421052632
 40
0.8947368421052632
 40
1.0
 40
1.0
 40
1.0
 40
1.0
 10
-92.46359
 20
114.25688
 30
0.0
 10
-92.46359
 20
114.25688
 30
0.0
 10
-92.46359
 20
98.89878
 30
0.0
 10
-92.46359
 20
98.89878
 30
0.0
 10
-92.46359
 20
98.89878
 30
0.0
 10
-92.46359
 20
98.89878
 30
0.0
 10
-92.41429
 20
99.37548
 30
0.0
 10
-92.41429
 20
99.37548
 30
0.0
 10
-92.41429
 20
99.37548
 30
0.0
 10
-92.41429
 20
99.37548
 30
0.0
 10
-92.10869
 20
100.35468
 30
0.0
 10
-92.10869
 20
100.35468
 30
0.0
 10
-92.10869
 20
100.35468
 30
0.0
 10
-92.10869
 20
100.35468
 30
0.0
 10
-91.62709
 20
101.23868
 30
0.0
 10
-91.62709
 20
101.23868
 30
0.0
 10
-91.62709
 20
101.23868
 30
0.0
 10
-91.62709
 20
101.23868
 30
0.0
 10
-90.99259
 20
102.00718
 30
0.0
 10
-90.99259
 20
102.00718
 30
0.0
 10
-90.99259
 20
102.00718
 30
0.0
 10
-90.99259
 20
102.00718
 30
0.0
 10
-90.22409
 20
102.64168
 30
0.0
 10
-90.22409
 20
102.64168
 30
0.0
 10
-90.22409
 20
102.64168
 30
0.0
 10
-90.22409
 20
102.64168
 30
0.0
 10
-89.34009
 20
103.12328
 30
0.0
 10
-89.34009
 20
103.12328
 30
0.0
 10
-89.34009
 20
103.12328
 30
0.0
 10
-89.34009
 20
103.12328
 30
0.0
 10
-88.38949
 20
103.41988
 30
0.0
 10
-88.38949
 20
103.41988
 30
0.0
 10
-88.38949
 20
103.41988
 30
0.0
 10
-88.38949
 20
103.41988
 30
0.0
 10
-87.82279
 20
103.50708
 30
0.0
 10
-87.82279
 20
103.50708
 30
0.0
 10
-87.82279
 20
103.50708
 30
0.0
 10
-87.08629
 20
103.51958
 30
0.0
 10
-86.35389
 20
103.48098
 30
0.0
 10
-85.63609
 20
103.65248
 30
0.0
 10
-85.63609
 20
103.65248
 30
0.0
 10
-85.30069
 20
103.74058
 30
0.0
 10
-84.98879
 20
103.85548
 30
0.0
 10
-84.68829
 20
104.03238
 30
0.0
 10
-84.68829
 20
104.03238
 30
0.0
 10
-84.41619
 20
104.20108
 30
0.0
 10
-84.17249
 20
104.38378
 30
0.0
 10
-83.93949
 20
104.60208
 30
0.0
 10
-83.93949
 20
104.60208
 30
0.0
 10
-83.68359
 20
104.85378
 30
0.0
 10
-83.45509
 20
105.12078
 30
0.0
 10
-83.27799
 20
105.43478
 30
0.0
 10
-83.27799
 20
105.43478
 30
0.0
 10
-83.06089
 20
105.83838
 30
0.0
 10
-82.91619
 20
106.23198
 30
0.0
 10
-82.82219
 20
106.67948
 30
0.0
 10
-82.82219
 20
106.67948
 30
0.0
 10
-82.82219
 20
106.67948
 30
0.0
 10
-82.77039
 20
107.13328
 30
0.0
 10
-82.77039
 20
107.13328
 30
0.0
 10
-82.77039
 20
107.13328
 30
0.0
 10
-82.77039
 20
107.13328
 30
0.0
 10
-82.76609
 20
113.42138
 30
0.0
 10
-82.76609
 20
113.42138
 30
0.0
 10
-82.76609
 20
113.42138
 30
0.0
 10
-83.86789
 20
112.14148
 30
0.0
 10
-85.49889
 20
111.32848
 30
0.0
 10
-87.31349
 20
111.32848
 30
0.0
 10
-87.31349
 20
111.32848
 30
0.0
 10
-89.49689
 20
111.32848
 30
0.0
 10
-91.41379
 20
112.50538
 30
0.0
 10
-92.46359
 20
114.25688
 30
0.0
  0
SPLINE
  5
52
330
1F
100
AcDbEntity
  8
layer 1
 62
   242
370
     9
100
AcDbSpline
210
0.0
220
0.0
230
1.0
 70
    11
 71
     3
 72
    76
 73
    72
 74
     0
 42
0.0000000001
 43
0.0000000001
 12
1.0
 22
0.0
 32
0.0
 13
1.0
 23
0.0
 33
0.0
 40
0.0
 40
0.0
 40
0.0
 40
0.0
 40
0.0526315789473684
 40
0.0526315789473684
 40
0.0526315789473684
 40
0.0526315789473684
 40
0.1052631578947368
 40
0.1052631578947368
 40
0.1052631578947368
 40
0.1052631578947368
 40
0.1578947368421053
 40
0.1578947368421053
 40
0.1578947368421053
 40
0.1578947368421053
 40
0.2105263157894737
 40
0.2105263157894737
 40
0.2105263157894737
 40
0.2105263157894737
 40
0.2631578947368421
 40
0.2631578947368421
 40
0.2631578947368421
 40
0.2631578947368421
 40
0.3157894736842105
 40
0.3157894736842105
 40
0.3157894736842105
 40
0.3157894736842105
 40
0.3684210526315789
 40
0.3684210526315789
 40
0.3684210526315789
 40
0.3684210526315789
 40
0.4210526315789473
 40
0.4210526315789473
 40
0.4210526315789473
 40
0.4210526315789473
 40
0.4736842105263158
 40
0.4736842105263158
 40
0.4736842105263158
 40
0.4736842105263158
 40
0.5263157894736842
 40
0.5263157894736842
 40
0.5263157894736842
 40
0.5263157894736842
 40
0.5789473684210527
 40
0.5789473684210527
 40
0.5789473684210527
 40
0.5789473684210527
 40
0.631578947368421
 40
0.631578947368421
 40
0.631578947368421
 40
0.631578947368421
 40
0.6842105263157895
 40
0.6842105263157895
 40
0.6842105263157895
 40
0.6842105263157895
 40
0.7368421052631579
 40
0.7368421052631579
 40
0.7368421052631579
 40
0.7368421052631579
 40
0.7894736842105263
 40
0.7894736842105263
 40
0.7894736842105263
 40
0.7894736842105263
 40
0.8421052631578947
 40
0.8421052631578947
 40
0.8421052631578947
 40
0.8421052631578947
 40
0.8947368421052632
 40
0.8947368421052632
 40
0.8947368421052632
 40
0.8947368421052632
 40
1.0
 40
1.0
 40
1.0
 40
1.0
 10
-36.77049
 20
22.57608
 30
0.0
 10
-36.77049
 20
22.57608
 30
0.0
 10
-36.08539
 20
22.90628
 30
0.0
 10
-36.08539
 20
22.90628
 30
0.0
 10
-36.08539
 20
22.90628
 30
0.0
 10
-36.08539
 20
22.90628
 30
0.0
 10
-36.01699
 20
22.90628
 30
0.0
 10
-36.01699
 20
22.90628
 30
0.0
 10
-36.01699
 20
22.90628
 30
0.0
 10
-36.01699
 20
22.90628
 30
0.0
 10
-36.01699
 20
20.53988
 30
0.0
 10
-36.01699
 20
20.53988
 30
0.0
 10
-36.01699
 20
20.53988
 30
0.0
 10
-36.01699
 20
20.38258
 30
0.0
 10
-36.01069
 20
20.28378
 30
0.0
 10
-35.99729
 20
20.24498
 30
0.0
 10
-35.99729
 20
20.24498
 30
0.0
 10
-35.98379
 20
20.20688
 30
0.0
 10
-35.95699
 20
20.17648
 30
0.0
 10
-35.91539
 20
20.15608
 30
0.0
 10
-35.91539
 20
20.15608
 30
0.0
 10
-35.87379
 20
20.13558
 30
0.0
 10
-35.78909
 20
20.12358
 30
0.0
 10
-35.66139
 20
20.12078
 30
0.0
 10
-35.66139
 20
20.12078
 30
0.0
 10
-35.66139
 20
20.12078
 30
0.0
 10
-35.66139
 20
20.04458
 30
0.0
 10
-35.66139
 20
20.04458
 30
0.0
 10
-35.66139
 20
20.04458
 30
0.0
 10
-35.66139
 20
20.04458
 30
0.0
 10
-36.71969
 20
20.04458
 30
0.0
 10
-36.71969
 20
20.04458
 30
0.0
 10
-36.71969
 20
20.04458
 30
0.0
 10
-36.71969
 20
20.04458
 30
0.0
 10
-36.71969
 20
20.12078
 30
0.0
 10
-36.71969
 20
20.12078
 30
0.0
 10
-36.71969
 20
20.12078
 30
0.0
 10
-36.58709
 20
20.12358
 30
0.0
 10
-36.50169
 20
20.13488
 30
0.0
 10
-36.46359
 20
20.15538
 30
0.0
 10
-36.46359
 20
20.15538
 30
0.0
 10
-36.42479
 20
20.17508
 30
0.0
 10
-36.39799
 20
20.20188
 30
0.0
 10
-36.38249
 20
20.23578
 30
0.0
 10
-36.38249
 20
20.23578
 30
0.0
 10
-36.36769
 20
20.26968
 30
0.0
 10
-36.35989
 20
20.37128
 30
0.0
 10
-36.35989
 20
20.53988
 30
0.0
 10
-36.35989
 20
20.53988
 30
0.0
 10
-36.35989
 20
20.53988
 30
0.0
 10
-36.35989
 20
22.05538
 30
0.0
 10
-36.35989
 20
22.05538
 30
0.0
 10
-36.35989
 20
22.05538
 30
0.0
 10
-36.35989
 20
22.25928
 30
0.0
 10
-36.36699
 20
22.39058
 30
0.0
 10
-36.38039
 20
22.44838
 30
0.0
 10
-36.38039
 20
22.44838
 30
0.0
 10
-36.39019
 20
22.49288
 30
0.0
 10
-36.40789
 20
22.52528
 30
0.0
 10
-36.43329
 20
22.54578
 30
0.0
 10
-36.43329
 20
22.54578
 30
0.0
 10
-36.45939
 20
22.56618
 30
0.0
 10
-36.48969
 20
22.57678
 30
0.0
 10
-36.52569
 20
22.57678
 30
0.0
 10
-36.52569
 20
22.57678
 30
0.0
 10
-36.57719
 20
22.57678
 30
0.0
 10
-36.64849
 20
22.55568
 30
0.0
 10
-36.73949
 20
22.51258
 30
0.0
 10
-36.73949
 20
22.51258
 30
0.0
 10
-36.73949
 20
22.51258
 30
0.0
 10
-36.77049
 20
22.57608
 30
0.0
 10
-36.77049
 20
22.57608
 30
0.0
  0
SPLINE
  5
53
330
1F
100
AcDbEntity
  8
layer 1
 62
   242
370
     9
100
AcDbSpline
210
0.0
220
0.0
230
1.0
 70
    11
 71
     3
 72
    44
 73
    40
 74
     0
 42
0.0000000001
 43
0.0000000001
 12
1.0
 22
0.0
 32
0.0
 13
1.0
 23
0.0
 33
0.0
 40
0.0
 40
0.0
 40
0.0
 40
0.0
 40
0.0909090909090909
 40
0.0909090909090909
 40
0.0909090909090909
 40
0.0909090909090909
 40
0.1818181818181818
 40
0.1818181818181818
 40
0.1818181818181818
 40
0.1818181818181818
 40
0.2727272727272727
 40
0.2727272727272727
 40
0.2727272727272727
 40
0.2727272727272727
 40
0.3636363636363636
 40
0.3636363636363636
 40
0.3636363636363636
 40
0.3636363636363636
 40
0.4545454545454545
 40
0.4545454545454545
 40
0.4545454545454545
 40
0.4545454545454545
 40
0.5454545454545454
 40
0.5454545454545454
 40
0.5454545454545454
 40
0.5454545454545454
 40
0.6363636363636364
 40
0.6363636363636364
 40
0.6363636363636364
 40
0.6363636363636364
 40
0.7272727272727273
 40
0.7272727272727273
 40
0.7272727272727273
 40
0.7272727272727273
 40
0.8181818181818182
 40
0.8181818181818182
 40
0.8181818181818182
 40
0.8181818181818182
 40
1.0
 40
1.0
 40
1.0
 40
1.0
 10
-34.99249
 20
21.43168
 30
0.0
 10
-34.99249
 20
21.75128
 30
0.0
 10
-34.94449
 20
22.02578
 30
0.0
 10
-34.84789
 20
22.25648
 30
0.0
 10
-34.84789
 20
22.25648
 30
0.0
 10
-34.75119
 20
22.48718
 30
0.0
 10
-34.62349
 20
22.65938
 30
0.0
 10
-34.46329
 20
22.77228
 30
0.0
 10
-34.46329
 20
22.77228
 30
0.0
 10
-34.33989
 20
22.86188
 30
0.0
 10
-34.21149
 20
22.90628
 30
0.0
 10
-34.07949
 20
22.90628
 30
0.0
 10
-34.07949
 20
22.90628
 30
0.0
 10
-33.86429
 20
22.90628
 30
0.0
 10
-33.67169
 20
22.79698
 30
0.0
 10
-33.50099
 20
22.57818
 30
0.0
 10
-33.50099
 20
22.57818
 30
0.0
 10
-33.28719
 20
22.30658
 30
0.0
 10
-33.18059
 20
21.93898
 30
0.0
 10
-33.18059
 20
21.47468
 30
0.0
 10
-33.18059
 20
21.47468
 30
0.0
 10
-33.18059
 20
21.15018
 30
0.0
 10
-33.22719
 20
20.87358
 30
0.0
 10
-33.32109
 20
20.64638
 30
0.0
 10
-33.32109
 20
20.64638
 30
0.0
 10
-33.41489
 20
20.41918
 30
0.0
 10
-33.53409
 20
20.25488
 30
0.0
 10
-33.67949
 20
20.15178
 30
0.0
 10
-33.67949
 20
20.15178
 30
0.0
 10
-33.82479
 20
20.04948
 30
0.0
 10
-33.96519
 20
19.99798
 30
0.0
 10
-34.09999
 20
19.99798
 30
0.0
 10
-34.09999
 20
19.99798
 30
0.0
 10
-34.36739
 20
19.99798
 30
0.0
 10
-34.58959
 20
20.15538
 30
0.0
 10
-34.76739
 20
20.47078
 30
0.0
 10
-34.76739
 20
20.47078
 30
0.0
 10
-34.91769
 20
20.73668
 30
0.0
 10
-34.99249
 20
21.05708
 30
0.0
 10
-34.99249
 20
21.43168
 30
0.0
  0
SPLINE
  5
54
330
1F
100
AcDbEntity
  8
layer 1
 62
   242
370
     9
100
AcDbSpline
210
0.0
220
0.0
230
1.0
 70
    11
 71
     3
 72
    48
 73
    44
 74
     0
 42
0.0000000001
 43
0.0000000001
 12
1.0
 22
0.0
 32
0.0
 13
1.0
 23
0.0
 33
0.0
 40
0.0
 40
0.0
 40
0.0
 40
0.0
 40
0.0833333333333333
 40
0.0833333333333333
 40
0.0833333333333333
 40
0.0833333333333333
 40
0.1666666666666667
 40
0.1666666666666667
 40
0.1666666666666667
 40
0.1666666666666667
 40
0.25
 40
0.25
 40
0.25
 40
0.25
 40
0.3333333333333333
 40
0.3333333333333333
 40
0.3333333333333333
 40
0.3333333333333333
 40
0.4166666666666667
 40
0.4166666666666667
 40
0.4166666666666667
 40
0.4166666666666667
 40
0.5
 40
0.5
 40
0.5
 40
0.5
 40
0.5833333333333334
 40
0.5833333333333334
 40
0.5833333333333334
 40
0.5833333333333334
 40
0.6666666666666666
 40
0.6666666666666666
 40
0.6666666666666666
 40
0.6666666666666666
 40
0.75
 40
0.75
 40
0.75
 40
0.75
 40
0.8333333333333334
 40
0.8333333333333334
 40
0.8333333333333334
 40
0.8333333333333334
 40
1.0
 40
1.0
 40
1.0
 40
1.0
 10
-34.58609
 20
21.38088
 30
0.0
 10
-34.58609
 20
20.99568
 30
0.0
 10
-34.53879
 20
20.68098
 30
0.0
 10
-34.44429
 20
20.43688
 30
0.0
 10
-34.44429
 20
20.43688
 30
0.0
 10
-34.36599
 20
20.23158
 30
0.0
 10
-34.24889
 20
20.12928
 30
0.0
 10
-34.09359
 20
20.12928
 30
0.0
 10
-34.09359
 20
20.12928
 30
0.0
 10
-34.01949
 20
20.12928
 30
0.0
 10
-33.94259
 20
20.16238
 30
0.0
 10
-33.86289
 20
20.22948
 30
0.0
 10
-33.86289
 20
20.22948
 30
0.0
 10
-33.78319
 20
20.29648
 30
0.0
 10
-33.72319
 20
20.40798
 30
0.0
 10
-33.68159
 20
20.56528
 30
0.0
 10
-33.68159
 20
20.56528
 30
0.0
 10
-33.61879
 20
20.80168
 30
0.0
 10
-33.58699
 20
21.13608
 30
0.0
 10
-33.58699
 20
21.56648
 30
0.0
 10
-33.58699
 20
21.56648
 30
0.0
 10
-33.58699
 20
21.88608
 30
0.0
 10
-33.62019
 20
22.15278
 30
0.0
 10
-33.68579
 20
22.36588
 30
0.0
 10
-33.68579
 20
22.36588
 30
0.0
 10
-33.73519
 20
22.52458
 30
0.0
 10
-33.79939
 20
22.63678
 30
0.0
 10
-33.87769
 20
22.70238
 30
0.0
 10
-33.87769
 20
22.70238
 30
0.0
 10
-33.93349
 20
22.74828
 30
0.0
 10
-34.00189
 20
22.77078
 30
0.0
 10
-34.08159
 20
22.77078
 30
0.0
 10
-34.08159
 20
22.77078
 30
0.0
 10
-34.17479
 20
22.77078
 30
0.0
 10
-34.25799
 20
22.72848
 30
0.0
 10
-34.33069
 20
22.64458
 30
0.0
 10
-34.33069
 20
22.64458
 30
0.0
 10
-34.42949
 20
22.53028
 30
0.0
 10
-34.49719
 20
22.35098
 30
0.0
 10
-34.53249
 20
22.10548
 30
0.0
 10
-34.53249
 20
22.10548
 30
0.0
 10
-34.56849
 20
21.86068
 30
0.0
 10
-34.58609
 20
21.61938
 30
0.0
 10
-34.58609
 20
21.38088
 30
0.0
  0
SPLINE
  5
55
330
1F
100
AcDbEntity
  8
layer 1
 62
   242
370
     9
100
AcDbSpline
210
0.0
220
0.0
230
1.0
 70
    11
 71
     3
 72
    68
 73
    64
 74
     0
 42
0.0000000001
 43
0.0000000001
 12
1.0
 22
0.0
 32
0.0
 13
1.0
 23
0.0
 33
0.0
 40
0.0
 40
0.0
 40
0.0
 40
0.0
 40
0.0588235294117647
 40
0.0588235294117647
 40
0.0588235294117647
 40
0.0588235294117647
 40
0.1176470588235294
 40
0.1176470588235294
 40
0.1176470588235294
 40
0.1176470588235294
 40
0.1764705882352941
 40
0.1764705882352941
 40
0.1764705882352941
 40
0.1764705882352941
 40
0.2352941176470588
 40
0.2352941176470588
 40
0.2352941176470588
 40
0.2352941176470588
 40
0.2941176470588235
 40
0.2941176470588235
 40
0.2941176470588235
 40
0.2941176470588235
 40
0.3529411764705883
 40
0.3529411764705883
 40
0.3529411764705883
 40
0.3529411764705883
 40
0.4117647058823529
 40
0.4117647058823529
 40
0.4117647058823529
 40
0.4117647058823529
 40
0.4705882352941176
 40
0.4705882352941176
 40
0.4705882352941176
 40
0.4705882352941176
 40
0.5294117647058824
 40
0.5294117647058824
 40
0.5294117647058824
 40
0.5294117647058824
 40
0.5882352941176471
 40
0.5882352941176471
 40
0.5882352941176471
 40
0.5882352941176471
 40
0.6470588235294118
 40
0.6470588235294118
 40
0.6470588235294118
 40
0.6470588235294118
 40
0.7058823529411765
 40
0.7058823529411765
 40
0.7058823529411765
 40
0.7058823529411765
 40
0.7647058823529411
 40
0.7647058823529411
 40
0.7647058823529411
 40
0.7647058823529411
 40
0.8235294117647058
 40
0.8235294117647058
 40
0.8235294117647058
 40
0.8235294117647058
 40
0.8823529411764706
 40
0.8823529411764706
 40
0.8823529411764706
 40
0.8823529411764706
 40
1.0
 40
1.0
 40
1.0
 40
1.0
 10
-32.21609
 20
21.45778
 30
0.0
 10
-32.43979
 20
21.63978
 30
0.0
 10
-32.58369
 20
21.78588
 30
0.0
 10
-32.64789
 20
21.89598
 30
0.0
 10
-32.64789
 20
21.89598
 30
0.0
 10
-32.71209
 20
22.00598
 30
0.0
 10
-32.74459
 20
22.12028
 30
0.0
 10
-32.74459
 20
22.23888
 30
0.0
 10
-32.74459
 20
22.23888
 30
0.0
 10
-32.74459
 20
22.42088
 30
0.0
 10
-32.67399
 20
22.57748
 30
0.0
 10
-32.53289
 20
22.70878
 30
0.0
 10
-32.53289
 20
22.70878
 30
0.0
 10
-32.39179
 20
22.84068
 30
0.0
 10
-32.20479
 20
22.90628
 30
0.0
 10
-31.97129
 20
22.90628
 30
0.0
 10
-31.97129
 20
22.90628
 30
0.0
 10
-31.74409
 20
22.90628
 30
0.0
 10
-31.56209
 20
22.84488
 30
0.0
 10
-31.42379
 20
22.72218
 30
0.0
 10
-31.42379
 20
22.72218
 30
0.0
 10
-31.28549
 20
22.60008
 30
0.0
 10
-31.21629
 20
22.46038
 30
0.0
 10
-31.21629
 20
22.30308
 30
0.0
 10
-31.21629
 20
22.30308
 30
0.0
 10
-31.21629
 20
22.19858
 30
0.0
 10
-31.25369
 20
22.09138
 30
0.0
 10
-31.32779
 20
21.98268
 30
0.0
 10
-31.32779
 20
21.98268
 30
0.0
 10
-31.40259
 20
21.87408
 30
0.0
 10
-31.55779
 20
21.74568
 30
0.0
 10
-31.79349
 20
21.59888
 30
0.0
 10
-31.79349
 20
21.59888
 30
0.0
 10
-31.55009
 20
21.41128
 30
0.0
 10
-31.38919
 20
21.26378
 30
0.0
 10
-31.31019
 20
21.15648
 30
0.0
 10
-31.31019
 20
21.15648
 30
0.0
 10
-31.20509
 20
21.01608
 30
0.0
 10
-31.15279
 20
20.86798
 30
0.0
 10
-31.15279
 20
20.71278
 30
0.0
 10
-31.15279
 20
20.71278
 30
0.0
 10
-31.15279
 20
20.51588
 30
0.0
 10
-31.22829
 20
20.34728
 30
0.0
 10
-31.37859
 20
20.20758
 30
0.0
 10
-31.37859
 20
20.20758
 30
0.0
 10
-31.52959
 20
20.06788
 30
0.0
 10
-31.72719
 20
19.99798
 30
0.0
 10
-31.97199
 20
19.99798
 30
0.0
 10
-31.97199
 20
19.99798
 30
0.0
 10
-32.23869
 20
19.99798
 30
0.0
 10
-32.44679
 20
20.08128
 30
0.0
 10
-32.59569
 20
20.24778
 30
0.0
 10
-32.59569
 20
20.24778
 30
0.0
 10
-32.71489
 20
20.38108
 30
0.0
 10
-32.77419
 20
20.52718
 30
0.0
 10
-32.77419
 20
20.68588
 30
0.0
 10
-32.77419
 20
20.68588
 30
0.0
 10
-32.77419
 20
20.80938
 30
0.0
 10
-32.73259
 20
20.93218
 30
0.0
 10
-32.64859
 20
21.05418
 30
0.0
 10
-32.64859
 20
21.05418
 30
0.0
 10
-32.56539
 20
21.17628
 30
0.0
 10
-32.42069
 20
21.31038
 30
0.0
 10
-32.21609
 20
21.45778
 30
0.0
  0
SPLINE
  5
56
330
1F
100
AcDbEntity
  8
layer 1
 62
   242
370
     9
100
AcDbSpline
210
0.0
220
0.0
230
1.0
 70
    11
 71
     3
 72
    40
 73
    36
 74
     0
 42
0.0000000001
 43
0.0000000001
 12
1.0
 22
0.0
 32
0.0
 13
1.0
 23
0.0
 33
0.0
 40
0.0
 40
0.0
 40
0.0
 40
0.0
 40
0.1
 40
0.1
 40
0.1
 40
0.1
 40
0.2
 40
0.2
 40
0.2
 40
0.2
 40
0.3
 40
0.3
 40
0.3
 40
0.3
 40
0.4
 40
0.4
 40
0.4
 40
0.4
 40
0.5
 40
0.5
 40
0.5
 40
0.5
 40
0.6
 40
0.6
 40
0.6
 40
0.6
 40
0.7
 40
0.7
 40
0.7
 40
0.7
 40
0.8
 40
0.8
 40
0.8
 40
0.8
 40
1.0
 40
1.0
 40
1.0
 40
1.0
 10
-31.89089
 20
21.67938
 30
0.0
 10
-31.72429
 20
21.82888
 30
0.0
 10
-31.61919
 20
21.94678
 30
0.0
 10
-31.57479
 20
22.03348
 30
0.0
 10
-31.57479
 20
22.03348
 30
0.0
 10
-31.53029
 20
22.11958
 30
0.0
 10
-31.50839
 20
22.21768
 30
0.0
 10
-31.50839
 20
22.32708
 30
0.0
 10
-31.50839
 20
22.32708
 30
0.0
 10
-31.50839
 20
22.47238
 30
0.0
 10
-31.54939
 20
22.58598
 30
0.0
 10
-31.63119
 20
22.66848
 30
0.0
 10
-31.63119
 20
22.66848
 30
0.0
 10
-31.71309
 20
22.75108
 30
0.0
 10
-31.82449
 20
22.79198
 30
0.0
 10
-31.96559
 20
22.79198
 30
0.0
 10
-31.96559
 20
22.79198
 30
0.0
 10
-32.10749
 20
22.79198
 30
0.0
 10
-32.22249
 20
22.75108
 30
0.0
 10
-32.31069
 20
22.66918
 30
0.0
 10
-32.31069
 20
22.66918
 30
0.0
 10
-32.39959
 20
22.58808
 30
0.0
 10
-32.44399
 20
22.49218
 30
0.0
 10
-32.44399
 20
22.38278
 30
0.0
 10
-32.44399
 20
22.38278
 30
0.0
 10
-32.44399
 20
22.31078
 30
0.0
 10
-32.42569
 20
22.23888
 30
0.0
 10
-32.38899
 20
22.16688
 30
0.0
 10
-32.38899
 20
22.16688
 30
0.0
 10
-32.35229
 20
22.09488
 30
0.0
 10
-32.30009
 20
22.02648
 30
0.0
 10
-32.23159
 20
21.96158
 30
0.0
 10
-32.23159
 20
21.96158
 30
0.0
 10
-32.23159
 20
21.96158
 30
0.0
 10
-31.89089
 20
21.67938
 30
0.0
 10
-31.89089
 20
21.67938
 30
0.0
  0
SPLINE
  5
57
330
1F
100
AcDbEntity
  8
layer 1
 62
   242
370
     9
100
AcDbSpline
210
0.0
220
0.0
230
1.0
 70
    11
 71
     3
 72
    36
 73
    32
 74
     0
 42
0.0000000001
 43
0.0000000001
 12
1.0
 22
0.0
 32
0.0
 13
1.0
 23
0.0
 33
0.0
 40
0.0
 40
0.0
 40
0.0
 40
0.0
 40
0.1111111111111111
 40
0.1111111111111111
 40
0.1111111111111111
 40
0.1111111111111111
 40
0.2222222222222222
 40
0.2222222222222222
 40
0.2222222222222222
 40
0.2222222222222222
 40
0.3333333333333333
 40
0.3333333333333333
 40
0.3333333333333333
 40
0.3333333333333333
 40
0.4444444444444444
 40
0.4444444444444444
 40
0.4444444444444444
 40
0.4444444444444444
 40
0.5555555555555556
 40
0.5555555555555556
 40
0.5555555555555556
 40
0.5555555555555556
 40
0.6666666666666666
 40
0.6666666666666666
 40
0.6666666666666666
 40
0.6666666666666666
 40
0.7777777777777778
 40
0.7777777777777778
 40
0.7777777777777778
 40
0.7777777777777778
 40
1.0
 40
1.0
 40
1.0
 40
1.0
 10
-32.11869
 20
21.37878
 30
0.0
 10
-32.23379
 20
21.28278
 30
0.0
 10
-32.31839
 20
21.17838
 30
0.0
 10
-32.37419
 20
21.06478
 30
0.0
 10
-32.37419
 20
21.06478
 30
0.0
 10
-32.42919
 20
20.95188
 30
0.0
 10
-32.45669
 20
20.82918
 30
0.0
 10
-32.45669
 20
20.69718
 30
0.0
 10
-32.45669
 20
20.69718
 30
0.0
 10
-32.45669
 20
20.52008
 30
0.0
 10
-32.40799
 20
20.37828
 30
0.0
 10
-32.31069
 20
20.27178
 30
0.0
 10
-32.31069
 20
20.27178
 30
0.0
 10
-32.21329
 20
20.16518
 30
0.0
 10
-32.08909
 20
20.11228
 30
0.0
 10
-31.93809
 20
20.11228
 30
0.0
 10
-31.93809
 20
20.11228
 30
0.0
 10
-31.78929
 20
20.11228
 30
0.0
 10
-31.66929
 20
20.15398
 30
0.0
 10
-31.57969
 20
20.23788
 30
0.0
 10
-31.57969
 20
20.23788
 30
0.0
 10
-31.49009
 20
20.32188
 30
0.0
 10
-31.44489
 20
20.42348
 30
0.0
 10
-31.44489
 20
20.54268
 30
0.0
 10
-31.44489
 20
20.54268
 30
0.0
 10
-31.44489
 20
20.64148
 30
0.0
 10
-31.47109
 20
20.73038
 30
0.0
 10
-31.52399
 20
20.80868
 30
0.0
 10
-31.52399
 20
20.80868
 30
0.0
 10
-31.62199
 20
20.95408
 30
0.0
 10
-31.82029
 20
21.14458
 30
0.0
 10
-32.11869
 20
21.37878
 30
0.0
  0
SPLINE
  5
58
330
1F
100
AcDbEntity
  8
layer 1
 62
   242
370
     9
100
AcDbSpline
210
0.0
220
0.0
230
1.0
 70
    11
 71
     3
 72
    36
 73
    32
 74
     0
 42
0.0000000001
 43
0.0000000001
 12
1.0
 22
0.0
 32
0.0
 13
1.0
 23
0.0
 33
0.0
 40
0.0
 40
0.0
 40
0.0
 40
0.0
 40
0.1111111111111111
 40
0.1111111111111111
 40
0.1111111111111111
 40
0.1111111111111111
 40
0.2222222222222222
 40
0.2222222222222222
 40
0.2222222222222222
 40
0.2222222222222222
 40
0.3333333333333333
 40
0.3333333333333333
 40
0.3333333333333333
 40
0.3333333333333333
 40
0.4444444444444444
 40
0.4444444444444444
 40
0.4444444444444444
 40
0.4444444444444444
 40
0.5555555555555556
 40
0.5555555555555556
 40
0.5555555555555556
 40
0.5555555555555556
 40
0.6666666666666666
 40
0.6666666666666666
 40
0.6666666666666666
 40
0.6666666666666666
 40
0.7777777777777778
 40
0.7777777777777778
 40
0.7777777777777778
 40
0.7777777777777778
 40
1.0
 40
1.0
 40
1.0
 40
1.0
 10
-30.38229
 20
20.44678
 30
0.0
 10
-30.31809
 20
20.44678
 30
0.0
 10
-30.26379
 20
20.42418
 30
0.0
 10
-30.21939
 20
20.37968
 30
0.0
 10
-30.21939
 20
20.37968
 30
0.0
 10
-30.17559
 20
20.33528
 30
0.0
 10
-30.15369
 20
20.28168
 30
0.0
 10
-30.15369
 20
20.21818
 30
0.0
 10
-30.15369
 20
20.21818
 30
0.0
 10
-30.15369
 20
20.15538
 30
0.0
 10
-30.17629
 20
20.10098
 30
0.0
 10
-30.22079
 20
20.05658
 30
0.0
 10
-30.22079
 20
20.05658
 30
0.0
 10
-30.26519
 20
20.01208
 30
0.0
 10
-30.31879
 20
19.98958
 30
0.0
 10
-30.38229
 20
19.98958
 30
0.0
 10
-30.38229
 20
19.98958
 30
0.0
 10
-30.44509
 20
19.98958
 30
0.0
 10
-30.49949
 20
20.01208
 30
0.0
 10
-30.54389
 20
20.05658
 30
0.0
 10
-30.54389
 20
20.05658
 30
0.0
 10
-30.58839
 20
20.10098
 30
0.0
 10
-30.61089
 20
20.15538
 30
0.0
 10
-30.61089
 20
20.21818
 30
0.0
 10
-30.61089
 20
20.21818
 30
0.0
 10
-30.61089
 20
20.28238
 30
0.0
 10
-30.58839
 20
20.33668
 30
0.0
 10
-30.54389
 20
20.38108
 30
0.0
 10
-30.54389
 20
20.38108
 30
0.0
 10
-30.49949
 20
20.42488
 30
0.0
 10
-30.44509
 20
20.44678
 30
0.0
 10
-30.38229
 20
20.44678
 30
0.0
  0
SPLINE
  5
59
330
1F
100
AcDbEntity
  8
layer 1
 62
   242
370
     9
100
AcDbSpline
210
0.0
220
0.0
230
1.0
 70
    11
 71
     3
 72
    96
 73
    92
 74
     0
 42
0.0000000001
 43
0.0000000001
 12
1.0
 22
0.0
 32
0.0
 13
1.0
 23
0.0
 33
0.0
 40
0.0
 40
0.0
 40
0.0
 40
0.0
 40
0.0416666666666667
 40
0.0416666666666667
 40
0.0416666666666667
 40
0.0416666666666667
 40
0.0833333333333333
 40
0.0833333333333333
 40
0.0833333333333333
 40
0.0833333333333333
 40
0.125
 40
0.125
 40
0.125
 40
0.125
 40
0.1666666666666667
 40
0.1666666666666667
 40
0.1666666666666667
 40
0.1666666666666667
 40
0.2083333333333333
 40
0.2083333333333333
 40
0.2083333333333333
 40
0.2083333333333333
 40
0.25
 40
0.25
 40
0.25
 40
0.25
 40
0.2916666666666667
 40
0.2916666666666667
 40
0.2916666666666667
 40
0.2916666666666667
 40
0.3333333333333333
 40
0.3333333333333333
 40
0.3333333333333333
 40
0.3333333333333333
 40
0.375
 40
0.375
 40
0.375
 40
0.375
 40
0.4166666666666667
 40
0.4166666666666667
 40
0.4166666666666667
 40
0.4166666666666667
 40
0.4583333333333333
 40
0.4583333333333333
 40
0.4583333333333333
 40
0.4583333333333333
 40
0.5
 40
0.5
 40
0.5
 40
0.5
 40
0.5416666666666666
 40
0.5416666666666666
 40
0.5416666666666666
 40
0.5416666666666666
 40
0.5833333333333334
 40
0.5833333333333334
 40
0.5833333333333334
 40
0.5833333333333334
 40
0.625
 40
0.625
 40
0.625
 40
0.625
 40
0.6666666666666666
 40
0.6666666666666666
 40
0.6666666666666666
 40
0.6666666666666666
 40
0.7083333333333334
 40
0.7083333333333334
 40
0.7083333333333334
 40
0.7083333333333334
 40
0.75
 40
0.75
 40
0.75
 40
0.75
 40
0.7916666666666666
 40
0.7916666666666666
 40
0.7916666666666666
 40
0.7916666666666666
 40
0.8333333333333334
 40
0.8333333333333334
 40
0.8333333333333334
 40
0.8333333333333334
 40
0.875
 40
0.875
 40
0.875
 40
0.875
 40
0.9166666666666666
 40
0.9166666666666666
 40
0.9166666666666666
 40
0.9166666666666666
 40
1.0
 40
1.0
 40
1.0
 40
1.0
 10
-28.01589
 20
22.85128
 30
0.0
 10
-28.01589
 20
22.85128
 30
0.0
 10
-28.17749
 20
22.49988
 30
0.0
 10
-28.17749
 20
22.49988
 30
0.0
 10
-28.17749
 20
22.49988
 30
0.0
 10
-28.17749
 20
22.49988
 30
0.0
 10
-29.02419
 20
22.49988
 30
0.0
 10
-29.02419
 20
22.49988
 30
0.0
 10
-29.02419
 20
22.49988
 30
0.0
 10
-29.02419
 20
22.49988
 30
0.0
 10
-29.20969
 20
22.12458
 30
0.0
 10
-29.20969
 20
22.12458
 30
0.0
 10
-29.20969
 20
22.12458
 30
0.0
 10
-28.83999
 20
22.07018
 30
0.0
 10
-28.54929
 20
21.93478
 30
0.0
 10
-28.33629
 20
21.71678
 30
0.0
 10
-28.33629
 20
21.71678
 30
0.0
 10
-28.15349
 20
21.52908
 30
0.0
 10
-28.06249
 20
21.30888
 30
0.0
 10
-28.06249
 20
21.05488
 30
0.0
 10
-28.06249
 20
21.05488
 30
0.0
 10
-28.06249
 20
20.90748
 30
0.0
 10
-28.09209
 20
20.77058
 30
0.0
 10
-28.15209
 20
20.64568
 30
0.0
 10
-28.15209
 20
20.64568
 30
0.0
 10
-28.21209
 20
20.52008
 30
0.0
 10
-28.28759
 20
20.41288
 30
0.0
 10
-28.37859
 20
20.32468
 30
0.0
 10
-28.37859
 20
20.32468
 30
0.0
 10
-28.46889
 20
20.23648
 30
0.0
 10
-28.57049
 20
20.16518
 30
0.0
 10
-28.68199
 20
20.11158
 30
0.0
 10
-28.68199
 20
20.11158
 30
0.0
 10
-28.83999
 20
20.03608
 30
0.0
 10
-29.00229
 20
19.99798
 30
0.0
 10
-29.16879
 20
19.99798
 30
0.0
 10
-29.16879
 20
19.99798
 30
0.0
 10
-29.33669
 20
19.99798
 30
0.0
 10
-29.45879
 20
20.02628
 30
0.0
 10
-29.53569
 20
20.08338
 30
0.0
 10
-29.53569
 20
20.08338
 30
0.0
 10
-29.61189
 20
20.13978
 30
0.0
 10
-29.64999
 20
20.20258
 30
0.0
 10
-29.64999
 20
20.27108
 30
0.0
 10
-29.64999
 20
20.27108
 30
0.0
 10
-29.64999
 20
20.30918
 30
0.0
 10
-29.63449
 20
20.34298
 30
0.0
 10
-29.60269
 20
20.37268
 30
0.0
 10
-29.60269
 20
20.37268
 30
0.0
 10
-29.57099
 20
20.40228
 30
0.0
 10
-29.53079
 20
20.41638
 30
0.0
 10
-29.48279
 20
20.41638
 30
0.0
 10
-29.48279
 20
20.41638
 30
0.0
 10
-29.44749
 20
20.41638
 30
0.0
 10
-29.41579
 20
20.41148
 30
0.0
 10
-29.38889
 20
20.40018
 30
0.0
 10
-29.38889
 20
20.40018
 30
0.0
 10
-29.36209
 20
20.38958
 30
0.0
 10
-29.31699
 20
20.36138
 30
0.0
 10
-29.25209
 20
20.31618
 30
0.0
 10
-29.25209
 20
20.31618
 30
0.0
 10
-29.14909
 20
20.24498
 30
0.0
 10
-29.04389
 20
20.20968
 30
0.0
 10
-28.93809
 20
20.20968
 30
0.0
 10
-28.93809
 20
20.20968
 30
0.0
 10
-28.77719
 20
20.20968
 30
0.0
 10
-28.63539
 20
20.27108
 30
0.0
 10
-28.51339
 20
20.39308
 30
0.0
 10
-28.51339
 20
20.39308
 30
0.0
 10
-28.39199
 20
20.51518
 30
0.0
 10
-28.33059
 20
20.66408
 30
0.0
 10
-28.33059
 20
20.83978
 30
0.0
 10
-28.33059
 20
20.83978
 30
0.0
 10
-28.33059
 20
21.00908
 30
0.0
 10
-28.38499
 20
21.16778
 30
0.0
 10
-28.49359
 20
21.31458
 30
0.0
 10
-28.49359
 20
21.31458
 30
0.0
 10
-28.60299
 20
21.46208
 30
0.0
 10
-28.75249
 20
21.57558
 30
0.0
 10
-28.94449
 20
21.65538
 30
0.0
 10
-28.94449
 20
21.65538
 30
0.0
 10
-29.09399
 20
21.71748
 30
0.0
 10
-29.29859
 20
21.75338
 30
0.0
 10
-29.55759
 20
21.76328
 30
0.0
 10
-29.55759
 20
21.76328
 30
0.0
 10
-29.55759
 20
21.76328
 30
0.0
 10
-29.01989
 20
22.85128
 30
0.0
 10
-29.01989
 20
22.85128
 30
0.0
 10
-29.01989
 20
22.85128
 30
0.0
 10
-29.01989
 20
22.85128
 30
0.0
 10
-28.01589
 20
22.85128
 30
0.0
 10
-28.01589
 20
22.85128
 30
0.0
  0
SPLINE
  5
5A
330
1F
100
AcDbEntity
  8
layer 1
 62
   242
370
     9
100
AcDbSpline
210
0.0
220
0.0
230
1.0
 70
    11
 71
     3
 72
    68
 73
    64
 74
     0
 42
0.0000000001
 43
0.0000000001
 12
1.0
 22
0.0
 32
0.0
 13
1.0
 23
0.0
 33
0.0
 40
0.0
 40
0.0
 40
0.0
 40
0.0
 40
0.0588235294117647
 40
0.0588235294117647
 40
0.0588235294117647
 40
0.0588235294117647
 40
0.1176470588235294
 40
0.1176470588235294
 40
0.1176470588235294
 40
0.1176470588235294
 40
0.1764705882352941
 40
0.1764705882352941
 40
0.1764705882352941
 40
0.1764705882352941
 40
0.2352941176470588
 40
0.2352941176470588
 40
0.2352941176470588
 40
0.2352941176470588
 40
0.2941176470588235
 40
0.2941176470588235
 40
0.2941176470588235
 40
0.2941176470588235
 40
0.3529411764705883
 40
0.3529411764705883
 40
0.3529411764705883
 40
0.3529411764705883
 40
0.4117647058823529
 40
0.4117647058823529
 40
0.4117647058823529
 40
0.4117647058823529
 40
0.4705882352941176
 40
0.4705882352941176
 40
0.4705882352941176
 40
0.4705882352941176
 40
0.5294117647058824
 40
0.5294117647058824
 40
0.5294117647058824
 40
0.5294117647058824
 40
0.5882352941176471
 40
0.5882352941176471
 40
0.5882352941176471
 40
0.5882352941176471
 40
0.6470588235294118
 40
0.6470588235294118
 40
0.6470588235294118
 40
0.6470588235294118
 40
0.7058823529411765
 40
0.7058823529411765
 40
0.7058823529411765
 40
0.7058823529411765
 40
0.7647058823529411
 40
0.7647058823529411
 40
0.7647058823529411
 40
0.7647058823529411
 40
0.8235294117647058
 40
0.8235294117647058
 40
0.8235294117647058
 40
0.8235294117647058
 40
0.8823529411764706
 40
0.8823529411764706
 40
0.8823529411764706
 40
0.8823529411764706
 40
1.0
 40
1.0
 40
1.0
 40
1.0
 10
-35.30109
 20
27.85938
 30
0.0
 10
-35.52479
 20
28.04138
 30
0.0
 10
-35.66869
 20
28.18748
 30
0.0
 10
-35.73289
 20
28.29758
 30
0.0
 10
-35.73289
 20
28.29758
 30
0.0
 10
-35.79709
 20
28.40758
 30
0.0
 10
-35.82959
 20
28.52188
 30
0.0
 10
-35.82959
 20
28.64048
 30
0.0
 10
-35.82959
 20
28.64048
 30
0.0
 10
-35.82959
 20
28.82248
 30
0.0
 10
-35.75899
 20
28.97908
 30
0.0
 10
-35.61789
 20
29.11038
 30
0.0
 10
-35.61789
 20
29.11038
 30
0.0
 10
-35.47679
 20
29.24228
 30
0.0
 10
-35.28979
 20
29.30788
 30
0.0
 10
-35.05629
 20
29.30788
 30
0.0
 10
-35.05629
 20
29.30788
 30
0.0
 10
-34.82909
 20
29.30788
 30
0.0
 10
-34.64709
 20
29.24648
 30
0.0
 10
-34.50879
 20
29.12378
 30
0.0
 10
-34.50879
 20
29.12378
 30
0.0
 10
-34.37049
 20
29.00168
 30
0.0
 10
-34.30129
 20
28.86198
 30
0.0
 10
-34.30129
 20
28.70468
 30
0.0
 10
-34.30129
 20
28.70468
 30
0.0
 10
-34.30129
 20
28.60018
 30
0.0
 10
-34.33869
 20
28.49298
 30
0.0
 10
-34.41279
 20
28.38428
 30
0.0
 10
-34.41279
 20
28.38428
 30
0.0
 10
-34.48759
 20
28.27568
 30
0.0
 10
-34.64279
 20
28.14728
 30
0.0
 10
-34.87849
 20
28.00048
 30
0.0
 10
-34.87849
 20
28.00048
 30
0.0
 10
-34.63509
 20
27.81288
 30
0.0
 10
-34.47419
 20
27.66538
 30
0.0
 10
-34.39519
 20
27.55808
 30
0.0
 10
-34.39519
 20
27.55808
 30
0.0
 10
-34.29009
 20
27.41768
 30
0.0
 10
-34.23779
 20
27.26958
 30
0.0
 10
-34.23779
 20
27.11438
 30
0.0
 10
-34.23779
 20
27.11438
 30
0.0
 10
-34.23779
 20
26.91748
 30
0.0
 10
-34.31329
 20
26.74888
 30
0.0
 10
-34.46359
 20
26.60918
 30
0.0
 10
-34.46359
 20
26.60918
 30
0.0
 10
-34.61459
 20
26.46948
 30
0.0
 10
-34.81219
 20
26.39958
 30
0.0
 10
-35.05699
 20
26.39958
 30
0.0
 10
-35.05699
 20
26.39958
 30
0.0
 10
-35.32369
 20
26.39958
 30
0.0
 10
-35.53179
 20
26.48288
 30
0.0
 10
-35.68069
 20
26.64938
 30
0.0
 10
-35.68069
 20
26.64938
 30
0.0
 10
-35.79989
 20
26.78268
 30
0.0
 10
-35.85919
 20
26.92878
 30
0.0
 10
-35.85919
 20
27.08748
 30
0.0
 10
-35.85919
 20
27.08748
 30
0.0
 10
-35.85919
 20
27.21098
 30
0.0
 10
-35.81759
 20
27.33378
 30
0.0
 10
-35.73359
 20
27.45578
 30
0.0
 10
-35.73359
 20
27.45578
 30
0.0
 10
-35.65039
 20
27.57788
 30
0.0
 10
-35.50569
 20
27.71198
 30
0.0
 10
-35.30109
 20
27.85938
 30
0.0
  0
SPLINE
  5
5B
330
1F
100
AcDbEntity
  8
layer 1
 62
   242
370
     9
100
AcDbSpline
210
0.0
220
0.0
230
1.0
 70
    11
 71
     3
 72
    40
 73
    36
 74
     0
 42
0.0000000001
 43
0.0000000001
 12
1.0
 22
0.0
 32
0.0
 13
1.0
 23
0.0
 33
0.0
 40
0.0
 40
0.0
 40
0.0
 40
0.0
 40
0.1
 40
0.1
 40
0.1
 40
0.1
 40
0.2
 40
0.2
 40
0.2
 40
0.2
 40
0.3
 40
0.3
 40
0.3
 40
0.3
 40
0.4
 40
0.4
 40
0.4
 40
0.4
 40
0.5
 40
0.5
 40
0.5
 40
0.5
 40
0.6
 40
0.6
 40
0.6
 40
0.6
 40
0.7
 40
0.7
 40
0.7
 40
0.7
 40
0.8
 40
0.8
 40
0.8
 40
0.8
 40
1.0
 40
1.0
 40
1.0
 40
1.0
 10
-34.97589
 20
28.08098
 30
0.0
 10
-34.80929
 20
28.23048
 30
0.0
 10
-34.70419
 20
28.34838
 30
0.0
 10
-34.65979
 20
28.43508
 30
0.0
 10
-34.65979
 20
28.43508
 30
0.0
 10
-34.61529
 20
28.52118
 30
0.0
 10
-34.59339
 20
28.61928
 30
0.0
 10
-34.59339
 20
28.72868
 30
0.0
 10
-34.59339
 20
28.72868
 30
0.0
 10
-34.59339
 20
28.87398
 30
0.0
 10
-34.63439
 20
28.98758
 30
0.0
 10
-34.71619
 20
29.07008
 30
0.0
 10
-34.71619
 20
29.07008
 30
0.0
 10
-34.79809
 20
29.15268
 30
0.0
 10
-34.90949
 20
29.19358
 30
0.0
 10
-35.05059
 20
29.19358
 30
0.0
 10
-35.05059
 20
29.19358
 30
0.0
 10
-35.19249
 20
29.19358
 30
0.0
 10
-35.30749
 20
29.15268
 30
0.0
 10
-35.39569
 20
29.07078
 30
0.0
 10
-35.39569
 20
29.07078
 30
0.0
 10
-35.48459
 20
28.98968
 30
0.0
 10
-35.52899
 20
28.89378
 30
0.0
 10
-35.52899
 20
28.78438
 30
0.0
 10
-35.52899
 20
28.78438
 30
0.0
 10
-35.52899
 20
28.71238
 30
0.0
 10
-35.51069
 20
28.64048
 30
0.0
 10
-35.47399
 20
28.56848
 30
0.0
 10
-35.47399
 20
28.56848
 30
0.0
 10
-35.43729
 20
28.49648
 30
0.0
 10
-35.38509
 20
28.42808
 30
0.0
 10
-35.31659
 20
28.36318
 30
0.0
 10
-35.31659
 20
28.36318
 30
0.0
 10
-35.31659
 20
28.36318
 30
0.0
 10
-34.97589
 20
28.08098
 30
0.0
 10
-34.97589
 20
28.08098
 30
0.0
  0
SPLINE
  5
5C
330
1F
100
AcDbEntity
  8
layer 1
 62
   242
370
     9
100
AcDbSpline
210
0.0
220
0.0
230
1.0
 70
    11
 71
     3
 72
    36
 73
    32
 74
     0
 42
0.0000000001
 43
0.0000000001
 12
1.0
 22
0.0
 32
0.0
 13
1.0
 23
0.0
 33
0.0
 40
0.0
 40
0.0
 40
0.0
 40
0.0
 40
0.1111111111111111
 40
0.1111111111111111
 40
0.1111111111111111
 40
0.1111111111111111
 40
0.2222222222222222
 40
0.2222222222222222
 40
0.2222222222222222
 40
0.2222222222222222
 40
0.3333333333333333
 40
0.3333333333333333
 40
0.3333333333333333
 40
0.3333333333333333
 40
0.4444444444444444
 40
0.4444444444444444
 40
0.4444444444444444
 40
0.4444444444444444
 40
0.5555555555555556
 40
0.5555555555555556
 40
0.5555555555555556
 40
0.5555555555555556
 40
0.6666666666666666
 40
0.6666666666666666
 40
0.6666666666666666
 40
0.6666666666666666
 40
0.7777777777777778
 40
0.7777777777777778
 40
0.7777777777777778
 40
0.7777777777777778
 40
1.0
 40
1.0
 40
1.0
 40
1.0
 10
-35.20369
 20
27.78038
 30
0.0
 10
-35.31879
 20
27.68438
 30
0.0
 10
-35.40339
 20
27.57998
 30
0.0
 10
-35.45919
 20
27.46638
 30
0.0
 10
-35.45919
 20
27.46638
 30
0.0
 10
-35.51419
 20
27.35348
 30
0.0
 10
-35.54169
 20
27.23078
 30
0.0
 10
-35.54169
 20
27.09878
 30
0.0
 10
-35.54169
 20
27.09878
 30
0.0
 10
-35.54169
 20
26.92168
 30
0.0
 10
-35.49299
 20
26.77988
 30
0.0
 10
-35.39569
 20
26.67338
 30
0.0
 10
-35.39569
 20
26.67338
 30
0.0
 10
-35.29829
 20
26.56678
 30
0.0
 10
-35.17409
 20
26.51388
 30
0.0
 10
-35.02309
 20
26.51388
 30
0.0
 10
-35.02309
 20
26.51388
 30
0.0
 10
-34.87429
 20
26.51388
 30
0.0
 10
-34.75429
 20
26.55558
 30
0.0
 10
-34.66469
 20
26.63948
 30
0.0
 10
-34.66469
 20
26.63948
 30
0.0
 10
-34.57509
 20
26.72348
 30
0.0
 10
-34.52989
 20
26.82508
 30
0.0
 10
-34.52989
 20
26.94428
 30
0.0
 10
-34.52989
 20
26.94428
 30
0.0
 10
-34.52989
 20
27.04308
 30
0.0
 10
-34.55609
 20
27.13198
 30
0.0
 10
-34.60899
 20
27.21028
 30
0.0
 10
-34.60899
 20
27.21028
 30
0.0
 10
-34.70699
 20
27.35568
 30
0.0
 10
-34.90529
 20
27.54618
 30
0.0
 10
-35.20369
 20
27.78038
 30
0.0
  0
SPLINE
  5
5D
330
1F
100
AcDbEntity
  8
layer 1
 62
   242
370
     9
100
AcDbSpline
210
0.0
220
0.0
230
1.0
 70
    11
 71
     3
 72
    64
 73
    60
 74
     0
 42
0.0000000001
 43
0.0000000001
 12
1.0
 22
0.0
 32
0.0
 13
1.0
 23
0.0
 33
0.0
 40
0.0
 40
0.0
 40
0.0
 40
0.0
 40
0.0625
 40
0.0625
 40
0.0625
 40
0.0625
 40
0.125
 40
0.125
 40
0.125
 40
0.125
 40
0.1875
 40
0.1875
 40
0.1875
 40
0.1875
 40
0.25
 40
0.25
 40
0.25
 40
0.25
 40
0.3125
 40
0.3125
 40
0.3125
 40
0.3125
 40
0.375
 40
0.375
 40
0.375
 40
0.375
 40
0.4375
 40
0.4375
 40
0.4375
 40
0.4375
 40
0.5
 40
0.5
 40
0.5
 40
0.5
 40
0.5625
 40
0.5625
 40
0.5625
 40
0.5625
 40
0.625
 40
0.625
 40
0.625
 40
0.625
 40
0.6875
 40
0.6875
 40
0.6875
 40
0.6875
 40
0.75
 40
0.75
 40
0.75
 40
0.75
 40
0.8125
 40
0.8125
 40
0.8125
 40
0.8125
 40
0.875
 40
0.875
 40
0.875
 40
0.875
 40
1.0
 40
1.0
 40
1.0
 40
1.0
 10
-33.77209
 20
26.38688
 30
0.0
 10
-33.77209
 20
26.38688
 30
0.0
 10
-33.77209
 20
26.46308
 30
0.0
 10
-33.77209
 20
26.46308
 30
0.0
 10
-33.77209
 20
26.46308
 30
0.0
 10
-33.59359
 20
26.46598
 30
0.0
 10
-33.42709
 20
26.50758
 30
0.0
 10
-33.27329
 20
26.58868
 30
0.0
 10
-33.27329
 20
26.58868
 30
0.0
 10
-33.11879
 20
26.66988
 30
0.0
 10
-32.97059
 20
26.81168
 30
0.0
 10
-32.82669
 20
27.01348
 30
0.0
 10
-32.82669
 20
27.01348
 30
0.0
 10
-32.68279
 20
27.21598
 30
0.0
 10
-32.58329
 20
27.43748
 30
0.0
 10
-32.52679
 20
27.67738
 30
0.0
 10
-32.52679
 20
27.67738
 30
0.0
 10
-32.74199
 20
27.53978
 30
0.0
 10
-32.93749
 20
27.47068
 30
0.0
 10
-33.11169
 20
27.47068
 30
0.0
 10
-33.11169
 20
27.47068
 30
0.0
 10
-33.30859
 20
27.47068
 30
0.0
 10
-33.47649
 20
27.54688
 30
0.0
 10
-33.61689
 20
27.69858
 30
0.0
 10
-33.61689
 20
27.69858
 30
0.0
 10
-33.75729
 20
27.85098
 30
0.0
 10
-33.82719
 20
28.05268
 30
0.0
 10
-33.82719
 20
28.30458
 30
0.0
 10
-33.82719
 20
28.30458
 30
0.0
 10
-33.82719
 20
28.54938
 30
0.0
 10
-33.75659
 20
28.76748
 30
0.0
 10
-33.61619
 20
28.95938
 30
0.0
 10
-33.61619
 20
28.95938
 30
0.0
 10
-33.44759
 20
29.19148
 30
0.0
 10
-33.22599
 20
29.30788
 30
0.0
 10
-32.95369
 20
29.30788
 30
0.0
 10
-32.95369
 20
29.30788
 30
0.0
 10
-32.72369
 20
29.30788
 30
0.0
 10
-32.52679
 20
29.21268
 30
0.0
 10
-32.36319
 20
29.02218
 30
0.0
 10
-32.36319
 20
29.02218
 30
0.0
 10
-32.16209
 20
28.78648
 30
0.0
 10
-32.06189
 20
28.49578
 30
0.0
 10
-32.06189
 20
28.14938
 30
0.0
 10
-32.06189
 20
28.14938
 30
0.0
 10
-32.06189
 20
27.83748
 30
0.0
 10
-32.13809
 20
27.54688
 30
0.0
 10
-32.29119
 20
27.27728
 30
0.0
 10
-32.29119
 20
27.27728
 30
0.0
 10
-32.44429
 20
27.00778
 30
0.0
 10
-32.65669
 20
26.78418
 30
0.0
 10
-32.92969
 20
26.60638
 30
0.0
 10
-32.92969
 20
26.60638
 30
0.0
 10
-33.15129
 20
26.46028
 30
0.0
 10
-33.39249
 20
26.38688
 30
0.0
 10
-33.65429
 20
26.38688
 30
0.0
 10
-33.65429
 20
26.38688
 30
0.0
 10
-33.65429
 20
26.38688
 30
0.0
 10
-33.77209
 20
26.38688
 30
0.0
 10
-33.77209
 20
26.38688
 30
0.0
  0
SPLINE
  5
5E
330
1F
100
AcDbEntity
  8
layer 1
 62
   242
370
     9
100
AcDbSpline
210
0.0
220
0.0
230
1.0
 70
    11
 71
     3
 72
    44
 73
    40
 74
     0
 42
0.0000000001
 43
0.0000000001
 12
1.0
 22
0.0
 32
0.0
 13
1.0
 23
0.0
 33
0.0
 40
0.0
 40
0.0
 40
0.0
 40
0.0
 40
0.0909090909090909
 40
0.0909090909090909
 40
0.0909090909090909
 40
0.0909090909090909
 40
0.1818181818181818
 40
0.1818181818181818
 40
0.1818181818181818
 40
0.1818181818181818
 40
0.2727272727272727
 40
0.2727272727272727
 40
0.2727272727272727
 40
0.2727272727272727
 40
0.3636363636363636
 40
0.3636363636363636
 40
0.3636363636363636
 40
0.3636363636363636
 40
0.4545454545454545
 40
0.4545454545454545
 40
0.4545454545454545
 40
0.4545454545454545
 40
0.5454545454545454
 40
0.5454545454545454
 40
0.5454545454545454
 40
0.5454545454545454
 40
0.6363636363636364
 40
0.6363636363636364
 40
0.6363636363636364
 40
0.6363636363636364
 40
0.7272727272727273
 40
0.7272727272727273
 40
0.7272727272727273
 40
0.7272727272727273
 40
0.8181818181818182
 40
0.8181818181818182
 40
0.8181818181818182
 40
0.8181818181818182
 40
1.0
 40
1.0
 40
1.0
 40
1.0
 10
-32.49369
 20
27.83048
 30
0.0
 10
-32.46829
 20
28.00898
 30
0.0
 10
-32.45559
 20
28.15218
 30
0.0
 10
-32.45559
 20
28.26018
 30
0.0
 10
-32.45559
 20
28.26018
 30
0.0
 10
-32.45559
 20
28.39348
 30
0.0
 10
-32.47819
 20
28.53748
 30
0.0
 10
-32.52329
 20
28.69268
 30
0.0
 10
-32.52329
 20
28.69268
 30
0.0
 10
-32.56919
 20
28.84718
 30
0.0
 10
-32.63339
 20
28.96568
 30
0.0
 10
-32.71589
 20
29.04828
 30
0.0
 10
-32.71589
 20
29.04828
 30
0.0
 10
-32.79919
 20
29.13078
 30
0.0
 10
-32.89369
 20
29.17238
 30
0.0
 10
-32.99959
 20
29.17238
 30
0.0
 10
-32.99959
 20
29.17238
 30
0.0
 10
-33.12159
 20
29.17238
 30
0.0
 10
-33.22889
 20
29.11738
 30
0.0
 10
-33.32059
 20
29.00728
 30
0.0
 10
-33.32059
 20
29.00728
 30
0.0
 10
-33.41299
 20
28.89728
 30
0.0
 10
-33.45889
 20
28.73358
 30
0.0
 10
-33.45889
 20
28.51558
 30
0.0
 10
-33.45889
 20
28.51558
 30
0.0
 10
-33.45889
 20
28.22558
 30
0.0
 10
-33.39749
 20
27.99838
 30
0.0
 10
-33.27539
 20
27.83468
 30
0.0
 10
-33.27539
 20
27.83468
 30
0.0
 10
-33.18649
 20
27.71618
 30
0.0
 10
-33.07649
 20
27.65688
 30
0.0
 10
-32.94659
 20
27.65688
 30
0.0
 10
-32.94659
 20
27.65688
 30
0.0
 10
-32.88309
 20
27.65688
 30
0.0
 10
-32.80839
 20
27.67168
 30
0.0
 10
-32.72229
 20
27.70208
 30
0.0
 10
-32.72229
 20
27.70208
 30
0.0
 10
-32.63549
 20
27.73238
 30
0.0
 10
-32.55929
 20
27.77548
 30
0.0
 10
-32.49369
 20
27.83048
 30
0.0
  0
SPLINE
  5
5F
330
1F
100
AcDbEntity
  8
layer 1
 62
   242
370
     9
100
AcDbSpline
210
0.0
220
0.0
230
1.0
 70
    11
 71
     3
 72
    36
 73
    32
 74
     0
 42
0.0000000001
 43
0.0000000001
 12
1.0
 22
0.0
 32
0.0
 13
1.0
 23
0.0
 33
0.0
 40
0.0
 40
0.0
 40
0.0
 40
0.0
 40
0.1111111111111111
 40
0.1111111111111111
 40
0.1111111111111111
 40
0.1111111111111111
 40
0.2222222222222222
 40
0.2222222222222222
 40
0.2222222222222222
 40
0.2222222222222222
 40
0.3333333333333333
 40
0.3333333333333333
 40
0.3333333333333333
 40
0.3333333333333333
 40
0.4444444444444444
 40
0.4444444444444444
 40
0.4444444444444444
 40
0.4444444444444444
 40
0.5555555555555556
 40
0.5555555555555556
 40
0.5555555555555556
 40
0.5555555555555556
 40
0.6666666666666666
 40
0.6666666666666666
 40
0.6666666666666666
 40
0.6666666666666666
 40
0.7777777777777778
 40
0.7777777777777778
 40
0.7777777777777778
 40
0.7777777777777778
 40
1.0
 40
1.0
 40
1.0
 40
1.0
 10
-31.35059
 20
26.84838
 30
0.0
 10
-31.28639
 20
26.84838
 30
0.0
 10
-31.23209
 20
26.82578
 30
0.0
 10
-31.18769
 20
26.78128
 30
0.0
 10
-31.18769
 20
26.78128
 30
0.0
 10
-31.14389
 20
26.73688
 30
0.0
 10
-31.12199
 20
26.68328
 30
0.0
 10
-31.12199
 20
26.61978
 30
0.0
 10
-31.12199
 20
26.61978
 30
0.0
 10
-31.12199
 20
26.55698
 30
0.0
 10
-31.14459
 20
26.50258
 30
0.0
 10
-31.18909
 20
26.45818
 30
0.0
 10
-31.18909
 20
26.45818
 30
0.0
 10
-31.23349
 20
26.41368
 30
0.0
 10
-31.28709
 20
26.39118
 30
0.0
 10
-31.35059
 20
26.39118
 30
0.0
 10
-31.35059
 20
26.39118
 30
0.0
 10
-31.41339
 20
26.39118
 30
0.0
 10
-31.46779
 20
26.41368
 30
0.0
 10
-31.51219
 20
26.45818
 30
0.0
 10
-31.51219
 20
26.45818
 30
0.0
 10
-31.55669
 20
26.50258
 30
0.0
 10
-31.57919
 20
26.55698
 30
0.0
 10
-31.57919
 20
26.61978
 30
0.0
 10
-31.57919
 20
26.61978
 30
0.0
 10
-31.57919
 20
26.68398
 30
0.0
 10
-31.55669
 20
26.73828
 30
0.0
 10
-31.51219
 20
26.78268
 30
0.0
 10
-31.51219
 20
26.78268
 30
0.0
 10
-31.46779
 20
26.82648
 30
0.0
 10
-31.41339
 20
26.84838
 30
0.0
 10
-31.35059
 20
26.84838
 30
0.0
  0
SPLINE
  5
60
330
1F
100
AcDbEntity
  8
layer 1
 62
   242
370
     9
100
AcDbSpline
210
0.0
220
0.0
230
1.0
 70
    11
 71
     3
 72
    44
 73
    40
 74
     0
 42
0.0000000001
 43
0.0000000001
 12
1.0
 22
0.0
 32
0.0
 13
1.0
 23
0.0
 33
0.0
 40
0.0
 40
0.0
 40
0.0
 40
0.0
 40
0.0909090909090909
 40
0.0909090909090909
 40
0.0909090909090909
 40
0.0909090909090909
 40
0.1818181818181818
 40
0.1818181818181818
 40
0.1818181818181818
 40
0.1818181818181818
 40
0.2727272727272727
 40
0.2727272727272727
 40
0.2727272727272727
 40
0.2727272727272727
 40
0.3636363636363636
 40
0.3636363636363636
 40
0.3636363636363636
 40
0.3636363636363636
 40
0.4545454545454545
 40
0.4545454545454545
 40
0.4545454545454545
 40
0.4545454545454545
 40
0.5454545454545454
 40
0.5454545454545454
 40
0.5454545454545454
 40
0.5454545454545454
 40
0.6363636363636364
 40
0.6363636363636364
 40
0.6363636363636364
 40
0.6363636363636364
 40
0.7272727272727273
 40
0.7272727272727273
 40
0.7272727272727273
 40
0.7272727272727273
 40
0.8181818181818182
 40
0.8181818181818182
 40
0.8181818181818182
 40
0.8181818181818182
 40
1.0
 40
1.0
 40
1.0
 40
1.0
 10
-30.66909
 20
27.83328
 30
0.0
 10
-30.66909
 20
28.15288
 30
0.0
 10
-30.62109
 20
28.42738
 30
0.0
 10
-30.52449
 20
28.65808
 30
0.0
 10
-30.52449
 20
28.65808
 30
0.0
 10
-30.42779
 20
28.88878
 30
0.0
 10
-30.30009
 20
29.06098
 30
0.0
 10
-30.13989
 20
29.17388
 30
0.0
 10
-30.13989
 20
29.17388
 30
0.0
 10
-30.01649
 20
29.26348
 30
0.0
 10
-29.88809
 20
29.30788
 30
0.0
 10
-29.75609
 20
29.30788
 30
0.0
 10
-29.75609
 20
29.30788
 30
0.0
 10
-29.54089
 20
29.30788
 30
0.0
 10
-29.34829
 20
29.19858
 30
0.0
 10
-29.17759
 20
28.97978
 30
0.0
 10
-29.17759
 20
28.97978
 30
0.0
 10
-28.96379
 20
28.70818
 30
0.0
 10
-28.85719
 20
28.34058
 30
0.0
 10
-28.85719
 20
27.87628
 30
0.0
 10
-28.85719
 20
27.87628
 30
0.0
 10
-28.85719
 20
27.55178
 30
0.0
 10
-28.90379
 20
27.27518
 30
0.0
 10
-28.99769
 20
27.04798
 30
0.0
 10
-28.99769
 20
27.04798
 30
0.0
 10
-29.09149
 20
26.82078
 30
0.0
 10
-29.21069
 20
26.65648
 30
0.0
 10
-29.35609
 20
26.55338
 30
0.0
 10
-29.35609
 20
26.55338
 30
0.0
 10
-29.50139
 20
26.45108
 30
0.0
 10
-29.64179
 20
26.39958
 30
0.0
 10
-29.77659
 20
26.39958
 30
0.0
 10
-29.77659
 20
26.39958
 30
0.0
 10
-30.04399
 20
26.39958
 30
0.0
 10
-30.26619
 20
26.55698
 30
0.0
 10
-30.44399
 20
26.87238
 30
0.0
 10
-30.44399
 20
26.87238
 30
0.0
 10
-30.59429
 20
27.13828
 30
0.0
 10
-30.66909
 20
27.45868
 30
0.0
 10
-30.66909
 20
27.83328
 30
0.0
  0
SPLINE
  5
61
330
1F
100
AcDbEntity
  8
layer 1
 62
   242
370
     9
100
AcDbSpline
210
0.0
220
0.0
230
1.0
 70
    11
 71
     3
 72
    48
 73
    44
 74
     0
 42
0.0000000001
 43
0.0000000001
 12
1.0
 22
0.0
 32
0.0
 13
1.0
 23
0.0
 33
0.0
 40
0.0
 40
0.0
 40
0.0
 40
0.0
 40
0.0833333333333333
 40
0.0833333333333333
 40
0.0833333333333333
 40
0.0833333333333333
 40
0.1666666666666667
 40
0.1666666666666667
 40
0.1666666666666667
 40
0.1666666666666667
 40
0.25
 40
0.25
 40
0.25
 40
0.25
 40
0.3333333333333333
 40
0.3333333333333333
 40
0.3333333333333333
 40
0.3333333333333333
 40
0.4166666666666667
 40
0.4166666666666667
 40
0.4166666666666667
 40
0.4166666666666667
 40
0.5
 40
0.5
 40
0.5
 40
0.5
 40
0.5833333333333334
 40
0.5833333333333334
 40
0.5833333333333334
 40
0.5833333333333334
 40
0.6666666666666666
 40
0.6666666666666666
 40
0.6666666666666666
 40
0.6666666666666666
 40
0.75
 40
0.75
 40
0.75
 40
0.75
 40
0.8333333333333334
 40
0.8333333333333334
 40
0.8333333333333334
 40
0.8333333333333334
 40
1.0
 40
1.0
 40
1.0
 40
1.0
 10
-30.26269
 20
27.78248
 30
0.0
 10
-30.26269
 20
27.39728
 30
0.0
 10
-30.21539
 20
27.08258
 30
0.0
 10
-30.12089
 20
26.83848
 30
0.0
 10
-30.12089
 20
26.83848
 30
0.0
 10
-30.04259
 20
26.63318
 30
0.0
 10
-29.92549
 20
26.53088
 30
0.0
 10
-29.77019
 20
26.53088
 30
0.0
 10
-29.77019
 20
26.53088
 30
0.0
 10
-29.69609
 20
26.53088
 30
0.0
 10
-29.61919
 20
26.56398
 30
0.0
 10
-29.53949
 20
26.63108
 30
0.0
 10
-29.53949
 20
26.63108
 30
0.0
 10
-29.45979
 20
26.69808
 30
0.0
 10
-29.39979
 20
26.80958
 30
0.0
 10
-29.35819
 20
26.96688
 30
0.0
 10
-29.35819
 20
26.96688
 30
0.0
 10
-29.29539
 20
27.20328
 30
0.0
 10
-29.26359
 20
27.53768
 30
0.0
 10
-29.26359
 20
27.96808
 30
0.0
 10
-29.26359
 20
27.96808
 30
0.0
 10
-29.26359
 20
28.28768
 30
0.0
 10
-29.29679
 20
28.55438
 30
0.0
 10
-29.36239
 20
28.76748
 30
0.0
 10
-29.36239
 20
28.76748
 30
0.0
 10
-29.41179
 20
28.92618
 30
0.0
 10
-29.47599
 20
29.03838
 30
0.0
 10
-29.55429
 20
29.10398
 30
0.0
 10
-29.55429
 20
29.10398
 30
0.0
 10
-29.61009
 20
29.14988
 30
0.0
 10
-29.67849
 20
29.17238
 30
0.0
 10
-29.75819
 20
29.17238
 30
0.0
 10
-29.75819
 20
29.17238
 30
0.0
 10
-29.85139
 20
29.17238
 30
0.0
 10
-29.93459
 20
29.13008
 30
0.0
 10
-30.00729
 20
29.04618
 30
0.0
 10
-30.00729
 20
29.04618
 30
0.0
 10
-30.10609
 20
28.93188
 30
0.0
 10
-30.17379
 20
28.75258
 30
0.0
 10
-30.20909
 20
28.50708
 30
0.0
 10
-30.20909
 20
28.50708
 30
0.0
 10
-30.24509
 20
28.26228
 30
0.0
 10
-30.26269
 20
28.02098
 30
0.0
 10
-30.26269
 20
27.78248
 30
0.0
  0
SPLINE
  5
62
330
1F
100
AcDbEntity
  8
layer 1
 62
   242
370
     9
100
AcDbSpline
210
0.0
220
0.0
230
1.0
 70
    11
 71
     3
 72
    68
 73
    64
 74
     0
 42
0.0000000001
 43
0.0000000001
 12
1.0
 22
0.0
 32
0.0
 13
1.0
 23
0.0
 33
0.0
 40
0.0
 40
0.0
 40
0.0
 40
0.0
 40
0.0588235294117647
 40
0.0588235294117647
 40
0.0588235294117647
 40
0.0588235294117647
 40
0.1176470588235294
 40
0.1176470588235294
 40
0.1176470588235294
 40
0.1176470588235294
 40
0.1764705882352941
 40
0.1764705882352941
 40
0.1764705882352941
 40
0.1764705882352941
 40
0.2352941176470588
 40
0.2352941176470588
 40
0.2352941176470588
 40
0.2352941176470588
 40
0.2941176470588235
 40
0.2941176470588235
 40
0.2941176470588235
 40
0.2941176470588235
 40
0.3529411764705883
 40
0.3529411764705883
 40
0.3529411764705883
 40
0.3529411764705883
 40
0.4117647058823529
 40
0.4117647058823529
 40
0.4117647058823529
 40
0.4117647058823529
 40
0.4705882352941176
 40
0.4705882352941176
 40
0.4705882352941176
 40
0.4705882352941176
 40
0.5294117647058824
 40
0.5294117647058824
 40
0.5294117647058824
 40
0.5294117647058824
 40
0.5882352941176471
 40
0.5882352941176471
 40
0.5882352941176471
 40
0.5882352941176471
 40
0.6470588235294118
 40
0.6470588235294118
 40
0.6470588235294118
 40
0.6470588235294118
 40
0.7058823529411765
 40
0.7058823529411765
 40
0.7058823529411765
 40
0.7058823529411765
 40
0.7647058823529411
 40
0.7647058823529411
 40
0.7647058823529411
 40
0.7647058823529411
 40
0.8235294117647058
 40
0.8235294117647058
 40
0.8235294117647058
 40
0.8235294117647058
 40
0.8823529411764706
 40
0.8823529411764706
 40
0.8823529411764706
 40
0.8823529411764706
 40
1.0
 40
1.0
 40
1.0
 40
1.0
 10
33.82431
 20
73.32948
 30
0.0
 10
33.64231
 20
73.10578
 30
0.0
 10
33.49621
 20
72.96188
 30
0.0
 10
33.38611
 20
72.89768
 30
0.0
 10
33.38611
 20
72.89768
 30
0.0
 10
33.27611
 20
72.83348
 30
0.0
 10
33.16181
 20
72.80098
 30
0.0
 10
33.04321
 20
72.80098
 30
0.0
 10
33.04321
 20
72.80098
 30
0.0
 10
32.86121
 20
72.80098
 30
0.0
 10
32.70461
 20
72.87158
 30
0.0
 10
32.57331
 20
73.01268
 30
0.0
 10
32.57331
 20
73.01268
 30
0.0
 10
32.44141
 20
73.15378
 30
0.0
 10
32.37581
 20
73.34078
 30
0.0
 10
32.37581
 20
73.57428
 30
0.0
 10
32.37581
 20
73.57428
 30
0.0
 10
32.37581
 20
73.80148
 30
0.0
 10
32.43721
 20
73.98348
 30
0.0
 10
32.55991
 20
74.12178
 30
0.0
 10
32.55991
 20
74.12178
 30
0.0
 10
32.68201
 20
74.26008
 30
0.0
 10
32.82171
 20
74.32928
 30
0.0
 10
32.97901
 20
74.32928
 30
0.0
 10
32.97901
 20
74.32928
 30
0.0
 10
33.08351
 20
74.32928
 30
0.0
 10
33.19071
 20
74.29188
 30
0.0
 10
33.29941
 20
74.21778
 30
0.0
 10
33.29941
 20
74.21778
 30
0.0
 10
33.40801
 20
74.14298
 30
0.0
 10
33.53641
 20
73.98778
 30
0.0
 10
33.68321
 20
73.75208
 30
0.0
 10
33.68321
 20
73.75208
 30
0.0
 10
33.87081
 20
73.99548
 30
0.0
 10
34.01831
 20
74.15638
 30
0.0
 10
34.12561
 20
74.23538
 30
0.0
 10
34.12561
 20
74.23538
 30
0.0
 10
34.26601
 20
74.34048
 30
0.0
 10
34.41411
 20
74.39278
 30
0.0
 10
34.56931
 20
74.39278
 30
0.0
 10
34.56931
 20
74.39278
 30
0.0
 10
34.76621
 20
74.39278
 30
0.0
 10
34.93481
 20
74.31728
 30
0.0
 10
35.07451
 20
74.16698
 30
0.0
 10
35.07451
 20
74.16698
 30
0.0
 10
35.21421
 20
74.01598
 30
0.0
 10
35.28411
 20
73.81838
 30
0.0
 10
35.28411
 20
73.57358
 30
0.0
 10
35.28411
 20
73.57358
 30
0.0
 10
35.28411
 20
73.30688
 30
0.0
 10
35.20081
 20
73.09878
 30
0.0
 10
35.03431
 20
72.94988
 30
0.0
 10
35.03431
 20
72.94988
 30
0.0
 10
34.90101
 20
72.83068
 30
0.0
 10
34.75491
 20
72.77138
 30
0.0
 10
34.59621
 20
72.77138
 30
0.0
 10
34.59621
 20
72.77138
 30
0.0
 10
34.47271
 20
72.77138
 30
0.0
 10
34.34991
 20
72.81298
 30
0.0
 10
34.22791
 20
72.89698
 30
0.0
 10
34.22791
 20
72.89698
 30
0.0
 10
34.10581
 20
72.98018
 30
0.0
 10
33.97171
 20
73.12488
 30
0.0
 10
33.82431
 20
73.32948
 30
0.0
  0
SPLINE
  5
63
330
1F
100
AcDbEntity
  8
layer 1
 62
   242
370
     9
100
AcDbSpline
210
0.0
220
0.0
230
1.0
 70
    11
 71
     3
 72
    40
 73
    36
 74
     0
 42
0.0000000001
 43
0.0000000001
 12
1.0
 22
0.0
 32
0.0
 13
1.0
 23
0.0
 33
0.0
 40
0.0
 40
0.0
 40
0.0
 40
0.0
 40
0.1
 40
0.1
 40
0.1
 40
0.1
 40
0.2
 40
0.2
 40
0.2
 40
0.2
 40
0.3
 40
0.3
 40
0.3
 40
0.3
 40
0.4
 40
0.4
 40
0.4
 40
0.4
 40
0.5
 40
0.5
 40
0.5
 40
0.5
 40
0.6
 40
0.6
 40
0.6
 40
0.6
 40
0.7
 40
0.7
 40
0.7
 40
0.7
 40
0.8
 40
0.8
 40
0.8
 40
0.8
 40
1.0
 40
1.0
 40
1.0
 40
1.0
 10
33.60271
 20
73.65468
 30
0.0
 10
33.45321
 20
73.82128
 30
0.0
 10
33.33531
 20
73.92638
 30
0.0
 10
33.24861
 20
73.97078
 30
0.0
 10
33.24861
 20
73.97078
 30
0.0
 10
33.16251
 20
74.01528
 30
0.0
 10
33.06441
 20
74.03718
 30
0.0
 10
32.95501
 20
74.03718
 30
0.0
 10
32.95501
 20
74.03718
 30
0.0
 10
32.80971
 20
74.03718
 30
0.0
 10
32.69611
 20
73.99618
 30
0.0
 10
32.61361
 20
73.91438
 30
0.0
 10
32.61361
 20
73.91438
 30
0.0
 10
32.53101
 20
73.83248
 30
0.0
 10
32.49011
 20
73.72108
 30
0.0
 10
32.49011
 20
73.57998
 30
0.0
 10
32.49011
 20
73.57998
 30
0.0
 10
32.49011
 20
73.43808
 30
0.0
 10
32.53101
 20
73.32308
 30
0.0
 10
32.61291
 20
73.23488
 30
0.0
 10
32.61291
 20
73.23488
 30
0.0
 10
32.69401
 20
73.14598
 30
0.0
 10
32.78991
 20
73.10158
 30
0.0
 10
32.89931
 20
73.10158
 30
0.0
 10
32.89931
 20
73.10158
 30
0.0
 10
32.97131
 20
73.10158
 30
0.0
 10
33.04321
 20
73.11988
 30
0.0
 10
33.11521
 20
73.15658
 30
0.0
 10
33.11521
 20
73.15658
 30
0.0
 10
33.18721
 20
73.19328
 30
0.0
 10
33.25561
 20
73.24548
 30
0.0
 10
33.32051
 20
73.31398
 30
0.0
 10
33.32051
 20
73.31398
 30
0.0
 10
33.32051
 20
73.31398
 30
0.0
 10
33.60271
 20
73.65468
 30
0.0
 10
33.60271
 20
73.65468
 30
0.0
  0
SPLINE
  5
64
330
1F
100
AcDbEntity
  8
layer 1
 62
   242
370
     9
100
AcDbSpline
210
0.0
220
0.0
230
1.0
 70
    11
 71
     3
 72
    36
 73
    32
 74
     0
 42
0.0000000001
 43
0.0000000001
 12
1.0
 22
0.0
 32
0.0
 13
1.0
 23
0.0
 33
0.0
 40
0.0
 40
0.0
 40
0.0
 40
0.0
 40
0.1111111111111111
 40
0.1111111111111111
 40
0.1111111111111111
 40
0.1111111111111111
 40
0.2222222222222222
 40
0.2222222222222222
 40
0.2222222222222222
 40
0.2222222222222222
 40
0.3333333333333333
 40
0.3333333333333333
 40
0.3333333333333333
 40
0.3333333333333333
 40
0.4444444444444444
 40
0.4444444444444444
 40
0.4444444444444444
 40
0.4444444444444444
 40
0.5555555555555556
 40
0.5555555555555556
 40
0.5555555555555556
 40
0.5555555555555556
 40
0.6666666666666666
 40
0.6666666666666666
 40
0.6666666666666666
 40
0.6666666666666666
 40
0.7777777777777778
 40
0.7777777777777778
 40
0.7777777777777778
 40
0.7777777777777778
 40
1.0
 40
1.0
 40
1.0
 40
1.0
 10
33.90331
 20
73.42688
 30
0.0
 10
33.99931
 20
73.31178
 30
0.0
 10
34.10371
 20
73.22718
 30
0.0
 10
34.21731
 20
73.17138
 30
0.0
 10
34.21731
 20
73.17138
 30
0.0
 10
34.33021
 20
73.11638
 30
0.0
 10
34.45291
 20
73.08888
 30
0.0
 10
34.58491
 20
73.08888
 30
0.0
 10
34.58491
 20
73.08888
 30
0.0
 10
34.76201
 20
73.08888
 30
0.0
 10
34.90381
 20
73.13758
 30
0.0
 10
35.01031
 20
73.23488
 30
0.0
 10
35.01031
 20
73.23488
 30
0.0
 10
35.11691
 20
73.33228
 30
0.0
 10
35.16981
 20
73.45648
 30
0.0
 10
35.16981
 20
73.60748
 30
0.0
 10
35.16981
 20
73.60748
 30
0.0
 10
35.16981
 20
73.75628
 30
0.0
 10
35.12811
 20
73.87628
 30
0.0
 10
35.04421
 20
73.96588
 30
0.0
 10
35.04421
 20
73.96588
 30
0.0
 10
34.96021
 20
74.05548
 30
0.0
 10
34.85861
 20
74.10068
 30
0.0
 10
34.73941
 20
74.10068
 30
0.0
 10
34.73941
 20
74.10068
 30
0.0
 10
34.64061
 20
74.10068
 30
0.0
 10
34.55171
 20
74.07448
 30
0.0
 10
34.47341
 20
74.02158
 30
0.0
 10
34.47341
 20
74.02158
 30
0.0
 10
34.32801
 20
73.92358
 30
0.0
 10
34.13751
 20
73.72528
 30
0.0
 10
33.90331
 20
73.42688
 30
0.0
  0
SPLINE
  5
65
330
1F
100
AcDbEntity
  8
layer 1
 62
   242
370
     9
100
AcDbSpline
210
0.0
220
0.0
230
1.0
 70
    11
 71
     3
 72
   132
 73
   128
 74
     0
 42
0.0000000001
 43
0.0000000001
 12
1.0
 22
0.0
 32
0.0
 13
1.0
 23
0.0
 33
0.0
 40
0.0
 40
0.0
 40
0.0
 40
0.0
 40
0.0303030303030303
 40
0.0303030303030303
 40
0.0303030303030303
 40
0.0303030303030303
 40
0.0606060606060606
 40
0.0606060606060606
 40
0.0606060606060606
 40
0.0606060606060606
 40
0.0909090909090909
 40
0.0909090909090909
 40
0.0909090909090909
 40
0.0909090909090909
 40
0.1212121212121212
 40
0.1212121212121212
 40
0.1212121212121212
 40
0.1212121212121212
 40
0.1515151515151515
 40
0.1515151515151515
 40
0.1515151515151515
 40
0.1515151515151515
 40
0.1818181818181818
 40
0.1818181818181818
 40
0.1818181818181818
 40
0.1818181818181818
 40
0.2121212121212121
 40
0.2121212121212121
 40
0.2121212121212121
 40
0.2121212121212121
 40
0.2424242424242424
 40
0.2424242424242424
 40
0.2424242424242424
 40
0.2424242424242424
 40
0.2727272727272727
 40
0.2727272727272727
 40
0.2727272727272727
 40
0.2727272727272727
 40
0.303030303030303
 40
0.303030303030303
 40
0.303030303030303
 40
0.303030303030303
 40
0.3333333333333333
 40
0.3333333333333333
 40
0.3333333333333333
 40
0.3333333333333333
 40
0.3636363636363636
 40
0.3636363636363636
 40
0.3636363636363636
 40
0.3636363636363636
 40
0.3939393939393939
 40
0.3939393939393939
 40
0.3939393939393939
 40
0.3939393939393939
 40
0.4242424242424243
 40
0.4242424242424243
 40
0.4242424242424243
 40
0.4242424242424243
 40
0.4545454545454545
 40
0.4545454545454545
 40
0.4545454545454545
 40
0.4545454545454545
 40
0.4848484848484849
 40
0.4848484848484849
 40
0.4848484848484849
 40
0.4848484848484849
 40
0.5151515151515151
 40
0.5151515151515151
 40
0.5151515151515151
 40
0.5151515151515151
 40
0.5454545454545454
 40
0.5454545454545454
 40
0.5454545454545454
 40
0.5454545454545454
 40
0.5757575757575758
 40
0.5757575757575758
 40
0.5757575757575758
 40
0.5757575757575758
 40
0.6060606060606061
 40
0.6060606060606061
 40
0.6060606060606061
 40
0.6060606060606061
 40
0.6363636363636364
 40
0.6363636363636364
 40
0.6363636363636364
 40
0.6363636363636364
 40
0.6666666666666666
 40
0.6666666666666666
 40
0.6666666666666666
 40
0.6666666666666666
 40
0.696969696969697
 40
0.696969696969697
 40
0.696969696969697
 40
0.696969696969697
 40
0.7272727272727273
 40
0.7272727272727273
 40
0.7272727272727273
 40
0.7272727272727273
 40
0.7575757575757576
 40
0.7575757575757576
 40
0.7575757575757576
 40
0.7575757575757576
 40
0.7878787878787878
 40
0.7878787878787878
 40
0.7878787878787878
 40
0.7878787878787878
 40
0.8181818181818182
 40
0.8181818181818182
 40
0.8181818181818182
 40
0.8181818181818182
 40
0.8484848484848485
 40
0.8484848484848485
 40
0.8484848484848485
 40
0.8484848484848485
 40
0.8787878787878788
 40
0.8787878787878788
 40
0.8787878787878788
 40
0.8787878787878788
 40
0.9090909090909091
 40
0.9090909090909091
 40
0.9090909090909091
 40
0.9090909090909091
 40
0.9393939393939394
 40
0.9393939393939394
 40
0.9393939393939394
 40
0.9393939393939394
 40
1.0
 40
1.0
 40
1.0
 40
1.0
 10
32.96851
 20
74.84578
 30
0.0
 10
32.77941
 20
74.92548
 30
0.0
 10
32.63331
 20
75.02708
 30
0.0
 10
32.53031
 20
75.14918
 30
0.0
 10
32.53031
 20
75.14918
 30
0.0
 10
32.42731
 20
75.27118
 30
0.0
 10
32.37581
 20
75.42358
 30
0.0
 10
32.37581
 20
75.60558
 30
0.0
 10
32.37581
 20
75.60558
 30
0.0
 10
32.37581
 20
75.83068
 30
0.0
 10
32.44851
 20
76.00288
 30
0.0
 10
32.59451
 20
76.12278
 30
0.0
 10
32.59451
 20
76.12278
 30
0.0
 10
32.70321
 20
76.21378
 30
0.0
 10
32.81961
 20
76.25968
 30
0.0
 10
32.94381
 20
76.25968
 30
0.0
 10
32.94381
 20
76.25968
 30
0.0
 10
33.14771
 20
76.25968
 30
0.0
 10
33.35861
 20
76.13128
 30
0.0
 10
33.57591
 20
75.87448
 30
0.0
 10
33.57591
 20
75.87448
 30
0.0
 10
33.64371
 20
76.04728
 30
0.0
 10
33.73961
 20
76.17778
 30
0.0
 10
33.86521
 20
76.26668
 30
0.0
 10
33.86521
 20
76.26668
 30
0.0
 10
33.99011
 20
76.35488
 30
0.0
 10
34.13751
 20
76.39938
 30
0.0
 10
34.30691
 20
76.39938
 30
0.0
 10
34.30691
 20
76.39938
 30
0.0
 10
34.54961
 20
76.39938
 30
0.0
 10
34.75911
 20
76.32178
 30
0.0
 10
34.93691
 20
76.16728
 30
0.0
 10
34.93691
 20
76.16728
 30
0.0
 10
35.16841
 20
75.96618
 30
0.0
 10
35.28411
 20
75.67408
 30
0.0
 10
35.28411
 20
75.29168
 30
0.0
 10
35.28411
 20
75.29168
 30
0.0
 10
35.28411
 20
75.10258
 30
0.0
 10
35.26081
 20
74.97418
 30
0.0
 10
35.21351
 20
74.90568
 30
0.0
 10
35.21351
 20
74.90568
 30
0.0
 10
35.16691
 20
74.83728
 30
0.0
 10
35.11611
 20
74.80338
 30
0.0
 10
35.06251
 20
74.80338
 30
0.0
 10
35.06251
 20
74.80338
 30
0.0
 10
35.02231
 20
74.80338
 30
0.0
 10
34.98771
 20
74.81968
 30
0.0
 10
34.95741
 20
74.85208
 30
0.0
 10
34.95741
 20
74.85208
 30
0.0
 10
34.92711
 20
74.88458
 30
0.0
 10
34.91151
 20
74.92338
 30
0.0
 10
34.91151
 20
74.96918
 30
0.0
 10
34.91151
 20
74.96918
 30
0.0
 10
34.91151
 20
75.00378
 30
0.0
 10
34.91721
 20
75.03908
 30
0.0
 10
34.92851
 20
75.07508
 30
0.0
 10
34.92851
 20
75.07508
 30
0.0
 10
34.93551
 20
75.09838
 30
0.0
 10
34.96091
 20
75.15128
 30
0.0
 10
35.00471
 20
75.23448
 30
0.0
 10
35.00471
 20
75.23448
 30
0.0
 10
35.04841
 20
75.31708
 30
0.0
 10
35.07451
 20
75.37488
 30
0.0
 10
35.08301
 20
75.40668
 30
0.0
 10
35.08301
 20
75.40668
 30
0.0
 10
35.09851
 20
75.45748
 30
0.0
 10
35.10631
 20
75.51248
 30
0.0
 10
35.10631
 20
75.57038
 30
0.0
 10
35.10631
 20
75.57038
 30
0.0
 10
35.10631
 20
75.71148
 30
0.0
 10
35.05191
 20
75.83348
 30
0.0
 10
34.94261
 20
75.93798
 30
0.0
 10
34.94261
 20
75.93798
 30
0.0
 10
34.83391
 20
76.04238
 30
0.0
 10
34.70481
 20
76.09458
 30
0.0
 10
34.55591
 20
76.09458
 30
0.0
 10
34.55591
 20
76.09458
 30
0.0
 10
34.44731
 20
76.09458
 30
0.0
 10
34.34071
 20
76.07058
 30
0.0
 10
34.23771
 20
76.02188
 30
0.0
 10
34.23771
 20
76.02188
 30
0.0
 10
34.16011
 20
75.98588
 30
0.0
 10
34.10161
 20
75.94638
 30
0.0
 10
34.06211
 20
75.90408
 30
0.0
 10
34.06211
 20
75.90408
 30
0.0
 10
34.00701
 20
75.84408
 30
0.0
 10
33.95691
 20
75.76298
 30
0.0
 10
33.91181
 20
75.65928
 30
0.0
 10
33.91181
 20
75.65928
 30
0.0
 10
33.86731
 20
75.55548
 30
0.0
 10
33.84471
 20
75.44968
 30
0.0
 10
33.84471
 20
75.34178
 30
0.0
 10
33.84471
 20
75.34178
 30
0.0
 10
33.84471
 20
75.34178
 30
0.0
 10
33.84471
 20
75.27538
 30
0.0
 10
33.84471
 20
75.27538
 30
0.0
 10
33.84471
 20
75.27538
 30
0.0
 10
33.84471
 20
75.27538
 30
0.0
 10
33.78121
 20
75.27538
 30
0.0
 10
33.78121
 20
75.27538
 30
0.0
 10
33.78121
 20
75.27538
 30
0.0
 10
33.76711
 20
75.38478
 30
0.0
 10
33.72831
 20
75.49348
 30
0.0
 10
33.66341
 20
75.60348
 30
0.0
 10
33.66341
 20
75.60348
 30
0.0
 10
33.59851
 20
75.71288
 30
0.0
 10
33.52091
 20
75.79258
 30
0.0
 10
33.42991
 20
75.84198
 30
0.0
 10
33.42991
 20
75.84198
 30
0.0
 10
33.33891
 20
75.89208
 30
0.0
 10
33.23941
 20
75.91678
 30
0.0
 10
33.13001
 20
75.91678
 30
0.0
 10
33.13001
 20
75.91678
 30
0.0
 10
32.98821
 20
75.91678
 30
0.0
 10
32.87391
 20
75.87228
 30
0.0
 10
32.78641
 20
75.78338
 30
0.0
 10
32.78641
 20
75.78338
 30
0.0
 10
32.69891
 20
75.69378
 30
0.0
 10
32.65521
 20
75.58308
 30
0.0
 10
32.65521
 20
75.45038
 30
0.0
 10
32.65521
 20
75.45038
 30
0.0
 10
32.65521
 20
75.23658
 30
0.0
 10
32.77091
 20
75.05808
 30
0.0
 10
33.00161
 20
74.91418
 30
0.0
 10
33.00161
 20
74.91418
 30
0.0
 10
33.00161
 20
74.91418
 30
0.0
 10
32.96851
 20
74.84578
 30
0.0
 10
32.96851
 20
74.84578
 30
0.0
  0
SPLINE
  5
66
330
1F
100
AcDbEntity
  8
layer 1
 62
   242
370
     9
100
AcDbSpline
210
0.0
220
0.0
230
1.0
 70
    11
 71
     3
 72
    36
 73
    32
 74
     0
 42
0.0000000001
 43
0.0000000001
 12
1.0
 22
0.0
 32
0.0
 13
1.0
 23
0.0
 33
0.0
 40
0.0
 40
0.0
 40
0.0
 40
0.0
 40
0.1111111111111111
 40
0.1111111111111111
 40
0.1111111111111111
 40
0.1111111111111111
 40
0.2222222222222222
 40
0.2222222222222222
 40
0.2222222222222222
 40
0.2222222222222222
 40
0.3333333333333333
 40
0.3333333333333333
 40
0.3333333333333333
 40
0.3333333333333333
 40
0.4444444444444444
 40
0.4444444444444444
 40
0.4444444444444444
 40
0.4444444444444444
 40
0.5555555555555556
 40
0.5555555555555556
 40
0.5555555555555556
 40
0.5555555555555556
 40
0.6666666666666666
 40
0.6666666666666666
 40
0.6666666666666666
 40
0.6666666666666666
 40
0.7777777777777778
 40
0.7777777777777778
 40
0.7777777777777778
 40
0.7777777777777778
 40
1.0
 40
1.0
 40
1.0
 40
1.0
 10
34.83531
 20
77.27998
 30
0.0
 10
34.83531
 20
77.34418
 30
0.0
 10
34.85791
 20
77.39848
 30
0.0
 10
34.90241
 20
77.44288
 30
0.0
 10
34.90241
 20
77.44288
 30
0.0
 10
34.94681
 20
77.48668
 30
0.0
 10
35.00041
 20
77.50858
 30
0.0
 10
35.06391
 20
77.50858
 30
0.0
 10
35.06391
 20
77.50858
 30
0.0
 10
35.12671
 20
77.50858
 30
0.0
 10
35.18111
 20
77.48598
 30
0.0
 10
35.22551
 20
77.44148
 30
0.0
 10
35.22551
 20
77.44148
 30
0.0
 10
35.27001
 20
77.39708
 30
0.0
 10
35.29251
 20
77.34348
 30
0.0
 10
35.29251
 20
77.27998
 30
0.0
 10
35.29251
 20
77.27998
 30
0.0
 10
35.29251
 20
77.21718
 30
0.0
 10
35.27001
 20
77.16278
 30
0.0
 10
35.22551
 20
77.11838
 30
0.0
 10
35.22551
 20
77.11838
 30
0.0
 10
35.18111
 20
77.07388
 30
0.0
 10
35.12671
 20
77.05138
 30
0.0
 10
35.06391
 20
77.05138
 30
0.0
 10
35.06391
 20
77.05138
 30
0.0
 10
34.99971
 20
77.05138
 30
0.0
 10
34.94541
 20
77.07388
 30
0.0
 10
34.90101
 20
77.11838
 30
0.0
 10
34.90101
 20
77.11838
 30
0.0
 10
34.85721
 20
77.16278
 30
0.0
 10
34.83531
 20
77.21718
 30
0.0
 10
34.83531
 20
77.27998
 30
0.0
  0
SPLINE
  5
67
330
1F
100
AcDbEntity
  8
layer 1
 62
   242
370
     9
100
AcDbSpline
210
0.0
220
0.0
230
1.0
 70
    11
 71
     3
 72
    96
 73
    92
 74
     0
 42
0.0000000001
 43
0.0000000001
 12
1.0
 22
0.0
 32
0.0
 13
1.0
 23
0.0
 33
0.0
 40
0.0
 40
0.0
 40
0.0
 40
0.0
 40
0.0416666666666667
 40
0.0416666666666667
 40
0.0416666666666667
 40
0.0416666666666667
 40
0.0833333333333333
 40
0.0833333333333333
 40
0.0833333333333333
 40
0.0833333333333333
 40
0.125
 40
0.125
 40
0.125
 40
0.125
 40
0.1666666666666667
 40
0.1666666666666667
 40
0.1666666666666667
 40
0.1666666666666667
 40
0.2083333333333333
 40
0.2083333333333333
 40
0.2083333333333333
 40
0.2083333333333333
 40
0.25
 40
0.25
 40
0.25
 40
0.25
 40
0.2916666666666667
 40
0.2916666666666667
 40
0.2916666666666667
 40
0.2916666666666667
 40
0.3333333333333333
 40
0.3333333333333333
 40
0.3333333333333333
 40
0.3333333333333333
 40
0.375
 40
0.375
 40
0.375
 40
0.375
 40
0.4166666666666667
 40
0.4166666666666667
 40
0.4166666666666667
 40
0.4166666666666667
 40
0.4583333333333333
 40
0.4583333333333333
 40
0.4583333333333333
 40
0.4583333333333333
 40
0.5
 40
0.5
 40
0.5
 40
0.5
 40
0.5416666666666666
 40
0.5416666666666666
 40
0.5416666666666666
 40
0.5416666666666666
 40
0.5833333333333334
 40
0.5833333333333334
 40
0.5833333333333334
 40
0.5833333333333334
 40
0.625
 40
0.625
 40
0.625
 40
0.625
 40
0.6666666666666666
 40
0.6666666666666666
 40
0.6666666666666666
 40
0.6666666666666666
 40
0.7083333333333334
 40
0.7083333333333334
 40
0.7083333333333334
 40
0.7083333333333334
 40
0.75
 40
0.75
 40
0.75
 40
0.75
 40
0.7916666666666666
 40
0.7916666666666666
 40
0.7916666666666666
 40
0.7916666666666666
 40
0.8333333333333334
 40
0.8333333333333334
 40
0.8333333333333334
 40
0.8333333333333334
 40
0.875
 40
0.875
 40
0.875
 40
0.875
 40
0.9166666666666666
 40
0.9166666666666666
 40
0.9166666666666666
 40
0.9166666666666666
 40
1.0
 40
1.0
 40
1.0
 40
1.0
 10
32.43081
 20
79.64638
 30
0.0
 10
32.43081
 20
79.64638
 30
0.0
 10
32.78221
 20
79.48478
 30
0.0
 10
32.78221
 20
79.48478
 30
0.0
 10
32.78221
 20
79.48478
 30
0.0
 10
32.78221
 20
79.48478
 30
0.0
 10
32.78221
 20
78.63808
 30
0.0
 10
32.78221
 20
78.63808
 30
0.0
 10
32.78221
 20
78.63808
 30
0.0
 10
32.78221
 20
78.63808
 30
0.0
 10
33.15751
 20
78.45258
 30
0.0
 10
33.15751
 20
78.45258
 30
0.0
 10
33.15751
 20
78.45258
 30
0.0
 10
33.21191
 20
78.82228
 30
0.0
 10
33.34731
 20
79.11298
 30
0.0
 10
33.56531
 20
79.32598
 30
0.0
 10
33.56531
 20
79.32598
 30
0.0
 10
33.75301
 20
79.50878
 30
0.0
 10
33.97321
 20
79.59978
 30
0.0
 10
34.22721
 20
79.59978
 30
0.0
 10
34.22721
 20
79.59978
 30
0.0
 10
34.37461
 20
79.59978
 30
0.0
 10
34.51151
 20
79.57018
 30
0.0
 10
34.63641
 20
79.51018
 30
0.0
 10
34.63641
 20
79.51018
 30
0.0
 10
34.76201
 20
79.45018
 30
0.0
 10
34.86921
 20
79.37468
 30
0.0
 10
34.95741
 20
79.28368
 30
0.0
 10
34.95741
 20
79.28368
 30
0.0
 10
35.04561
 20
79.19338
 30
0.0
 10
35.11691
 20
79.09178
 30
0.0
 10
35.17051
 20
78.98028
 30
0.0
 10
35.17051
 20
78.98028
 30
0.0
 10
35.24601
 20
78.82228
 30
0.0
 10
35.28411
 20
78.65998
 30
0.0
 10
35.28411
 20
78.49348
 30
0.0
 10
35.28411
 20
78.49348
 30
0.0
 10
35.28411
 20
78.32558
 30
0.0
 10
35.25581
 20
78.20348
 30
0.0
 10
35.19871
 20
78.12658
 30
0.0
 10
35.19871
 20
78.12658
 30
0.0
 10
35.14231
 20
78.05038
 30
0.0
 10
35.07951
 20
78.01228
 30
0.0
 10
35.01101
 20
78.01228
 30
0.0
 10
35.01101
 20
78.01228
 30
0.0
 10
34.97291
 20
78.01228
 30
0.0
 10
34.93911
 20
78.02778
 30
0.0
 10
34.90941
 20
78.05958
 30
0.0
 10
34.90941
 20
78.05958
 30
0.0
 10
34.87981
 20
78.09128
 30
0.0
 10
34.86571
 20
78.13148
 30
0.0
 10
34.86571
 20
78.17948
 30
0.0
 10
34.86571
 20
78.17948
 30
0.0
 10
34.86571
 20
78.21478
 30
0.0
 10
34.87061
 20
78.24648
 30
0.0
 10
34.88191
 20
78.27338
 30
0.0
 10
34.88191
 20
78.27338
 30
0.0
 10
34.89251
 20
78.30018
 30
0.0
 10
34.92071
 20
78.34528
 30
0.0
 10
34.96591
 20
78.41018
 30
0.0
 10
34.96591
 20
78.41018
 30
0.0
 10
35.03711
 20
78.51318
 30
0.0
 10
35.07241
 20
78.61838
 30
0.0
 10
35.07241
 20
78.72418
 30
0.0
 10
35.07241
 20
78.72418
 30
0.0
 10
35.07241
 20
78.88508
 30
0.0
 10
35.01101
 20
79.02688
 30
0.0
 10
34.88901
 20
79.14888
 30
0.0
 10
34.88901
 20
79.14888
 30
0.0
 10
34.76691
 20
79.27028
 30
0.0
 10
34.61801
 20
79.33168
 30
0.0
 10
34.44231
 20
79.33168
 30
0.0
 10
34.44231
 20
79.33168
 30
0.0
 10
34.27301
 20
79.33168
 30
0.0
 10
34.11431
 20
79.27728
 30
0.0
 10
33.96751
 20
79.16868
 30
0.0
 10
33.96751
 20
79.16868
 30
0.0
 10
33.82001
 20
79.05928
 30
0.0
 10
33.70651
 20
78.90978
 30
0.0
 10
33.62671
 20
78.71778
 30
0.0
 10
33.62671
 20
78.71778
 30
0.0
 10
33.56461
 20
78.56828
 30
0.0
 10
33.52871
 20
78.36368
 30
0.0
 10
33.51881
 20
78.10468
 30
0.0
 10
33.51881
 20
78.10468
 30
0.0
 10
33.51881
 20
78.10468
 30
0.0
 10
32.43081
 20
78.64238
 30
0.0
 10
32.43081
 20
78.64238
 30
0.0
 10
32.43081
 20
78.64238
 30
0.0
 10
32.43081
 20
78.64238
 30
0.0
 10
32.43081
 20
79.64638
 30
0.0
 10
32.43081
 20
79.64638
 30
0.0
  0
SPLINE
  5
68
330
1F
100
AcDbEntity
  8
layer 1
 62
   242
370
     9
100
AcDbSpline
210
0.0
220
0.0
230
1.0
 70
    11
 71
     3
 72
    48
 73
    44
 74
     0
 42
0.0000000001
 43
0.0000000001
 12
1.0
 22
0.0
 32
0.0
 13
1.0
 23
0.0
 33
0.0
 40
0.0
 40
0.0
 40
0.0
 40
0.0
 40
0.0833333333333333
 40
0.0833333333333333
 40
0.0833333333333333
 40
0.0833333333333333
 40
0.1666666666666667
 40
0.1666666666666667
 40
0.1666666666666667
 40
0.1666666666666667
 40
0.25
 40
0.25
 40
0.25
 40
0.25
 40
0.3333333333333333
 40
0.3333333333333333
 40
0.3333333333333333
 40
0.3333333333333333
 40
0.4166666666666667
 40
0.4166666666666667
 40
0.4166666666666667
 40
0.4166666666666667
 40
0.5
 40
0.5
 40
0.5
 40
0.5
 40
0.5833333333333334
 40
0.5833333333333334
 40
0.5833333333333334
 40
0.5833333333333334
 40
0.6666666666666666
 40
0.6666666666666666
 40
0.6666666666666666
 40
0.6666666666666666
 40
0.75
 40
0.75
 40
0.75
 40
0.75
 40
0.8333333333333334
 40
0.8333333333333334
 40
0.8333333333333334
 40
0.8333333333333334
 40
1.0
 40
1.0
 40
1.0
 40
1.0
 10
27.80301
 20
73.27918
 30
0.0
 10
27.80301
 20
73.27918
 30
0.0
 10
28.09511
 20
73.27918
 30
0.0
 10
28.09511
 20
73.27918
 30
0.0
 10
28.09511
 20
73.27918
 30
0.0
 10
28.09511
 20
73.27918
 30
0.0
 10
28.09511
 20
72.90238
 30
0.0
 10
28.09511
 20
72.90238
 30
0.0
 10
28.09511
 20
72.90238
 30
0.0
 10
28.09511
 20
72.90238
 30
0.0
 10
28.83591
 20
72.90238
 30
0.0
 10
28.83591
 20
72.90238
 30
0.0
 10
28.83591
 20
72.90238
 30
0.0
 10
28.83591
 20
72.90238
 30
0.0
 10
28.83591
 20
72.55948
 30
0.0
 10
28.83591
 20
72.55948
 30
0.0
 10
28.83591
 20
72.55948
 30
0.0
 10
28.83591
 20
72.55948
 30
0.0
 10
28.09511
 20
72.55948
 30
0.0
 10
28.09511
 20
72.55948
 30
0.0
 10
28.09511
 20
72.55948
 30
0.0
 10
28.09511
 20
72.55948
 30
0.0
 10
28.09511
 20
71.37838
 30
0.0
 10
28.09511
 20
71.37838
 30
0.0
 10
28.09511
 20
71.37838
 30
0.0
 10
28.09511
 20
71.37838
 30
0.0
 10
27.83191
 20
71.37838
 30
0.0
 10
27.83191
 20
71.37838
 30
0.0
 10
27.83191
 20
71.37838
 30
0.0
 10
27.83191
 20
71.37838
 30
0.0
 10
25.97421
 20
72.67378
 30
0.0
 10
25.97421
 20
72.67378
 30
0.0
 10
25.97421
 20
72.67378
 30
0.0
 10
25.97421
 20
72.67378
 30
0.0
 10
25.97421
 20
72.90238
 30
0.0
 10
25.97421
 20
72.90238
 30
0.0
 10
25.97421
 20
72.90238
 30
0.0
 10
25.97421
 20
72.90238
 30
0.0
 10
27.80301
 20
72.90238
 30
0.0
 10
27.80301
 20
72.90238
 30
0.0
 10
27.80301
 20
72.90238
 30
0.0
 10
27.80301
 20
72.90238
 30
0.0
 10
27.80301
 20
73.27918
 30
0.0
 10
27.80301
 20
73.27918
 30
0.0
  0
SPLINE
  5
69
330
1F
100
AcDbEntity
  8
layer 1
 62
   242
370
     9
100
AcDbSpline
210
0.0
220
0.0
230
1.0
 70
    11
 71
     3
 72
    16
 73
    12
 74
     0
 42
0.0000000001
 43
0.0000000001
 12
1.0
 22
0.0
 32
0.0
 13
1.0
 23
0.0
 33
0.0
 40
0.0
 40
0.0
 40
0.0
 40
0.0
 40
0.25
 40
0.25
 40
0.25
 40
0.25
 40
0.5
 40
0.5
 40
0.5
 40
0.5
 40
1.0
 40
1.0
 40
1.0
 40
1.0
 10
27.80301
 20
72.55948
 30
0.0
 10
27.80301
 20
72.55948
 30
0.0
 10
26.41021
 20
72.55948
 30
0.0
 10
26.41021
 20
72.55948
 30
0.0
 10
26.41021
 20
72.55948
 30
0.0
 10
26.41021
 20
72.55948
 30
0.0
 10
27.80301
 20
71.58018
 30
0.0
 10
27.80301
 20
71.58018
 30
0.0
 10
27.80301
 20
71.58018
 30
0.0
 10
27.80301
 20
71.58018
 30
0.0
 10
27.80301
 20
72.55948
 30
0.0
 10
27.80301
 20
72.55948
 30
0.0
  0
SPLINE
  5
6A
330
1F
100
AcDbEntity
  8
layer 1
 62
   242
370
     9
100
AcDbSpline
210
0.0
220
0.0
230
1.0
 70
    11
 71
     3
 72
    72
 73
    68
 74
     0
 42
0.0000000001
 43
0.0000000001
 12
1.0
 22
0.0
 32
0.0
 13
1.0
 23
0.0
 33
0.0
 40
0.0
 40
0.0
 40
0.0
 40
0.0
 40
0.0555555555555556
 40
0.0555555555555556
 40
0.0555555555555556
 40
0.0555555555555556
 40
0.1111111111111111
 40
0.1111111111111111
 40
0.1111111111111111
 40
0.1111111111111111
 40
0.1666666666666667
 40
0.1666666666666667
 40
0.1666666666666667
 40
0.1666666666666667
 40
0.2222222222222222
 40
0.2222222222222222
 40
0.2222222222222222
 40
0.2222222222222222
 40
0.2777777777777778
 40
0.2777777777777778
 40
0.2777777777777778
 40
0.2777777777777778
 40
0.3333333333333333
 40
0.3333333333333333
 40
0.3333333333333333
 40
0.3333333333333333
 40
0.3888888888888889
 40
0.3888888888888889
 40
0.3888888888888889
 40
0.3888888888888889
 40
0.4444444444444444
 40
0.4444444444444444
 40
0.4444444444444444
 40
0.4444444444444444
 40
0.5
 40
0.5
 40
0.5
 40
0.5
 40
0.5555555555555556
 40
0.5555555555555556
 40
0.5555555555555556
 40
0.5555555555555556
 40
0.6111111111111112
 40
0.6111111111111112
 40
0.6111111111111112
 40
0.6111111111111112
 40
0.6666666666666666
 40
0.6666666666666666
 40
0.6666666666666666
 40
0.6666666666666666
 40
0.7222222222222222
 40
0.7222222222222222
 40
0.7222222222222222
 40
0.7222222222222222
 40
0.7777777777777778
 40
0.7777777777777778
 40
0.7777777777777778
 40
0.7777777777777778
 40
0.8333333333333334
 40
0.8333333333333334
 40
0.8333333333333334
 40
0.8333333333333334
 40
0.8888888888888888
 40
0.8888888888888888
 40
0.8888888888888888
 40
0.8888888888888888
 40
1.0
 40
1.0
 40
1.0
 40
1.0
 10
25.97421
 20
75.32388
 30
0.0
 10
25.97421
 20
75.32388
 30
0.0
 10
26.05461
 20
75.32388
 30
0.0
 10
26.05461
 20
75.32388
 30
0.0
 10
26.05461
 20
75.32388
 30
0.0
 10
26.07231
 20
75.14258
 30
0.0
 10
26.10821
 20
74.99438
 30
0.0
 10
26.16261
 20
74.87938
 30
0.0
 10
26.16261
 20
74.87938
 30
0.0
 10
26.21691
 20
74.76438
 30
0.0
 10
26.29941
 20
74.65078
 30
0.0
 10
26.41091
 20
74.53928
 30
0.0
 10
26.41091
 20
74.53928
 30
0.0
 10
26.52171
 20
74.42718
 30
0.0
 10
26.64591
 20
74.33398
 30
0.0
 10
26.78201
 20
74.26068
 30
0.0
 10
26.78201
 20
74.26068
 30
0.0
 10
26.91891
 20
74.18728
 30
0.0
 10
27.08121
 20
74.12588
 30
0.0
 10
27.26891
 20
74.07648
 30
0.0
 10
27.26891
 20
74.07648
 30
0.0
 10
27.13411
 20
74.27408
 30
0.0
 10
27.06641
 20
74.47228
 30
0.0
 10
27.06641
 20
74.67198
 30
0.0
 10
27.06641
 20
74.67198
 30
0.0
 10
27.06641
 20
74.86318
 30
0.0
 10
27.14331
 20
75.02828
 30
0.0
 10
27.29781
 20
75.16868
 30
0.0
 10
27.29781
 20
75.16868
 30
0.0
 10
27.45161
 20
75.30908
 30
0.0
 10
27.64991
 20
75.37898
 30
0.0
 10
27.89191
 20
75.37898
 30
0.0
 10
27.89191
 20
75.37898
 30
0.0
 10
28.12541
 20
75.37898
 30
0.0
 10
28.33921
 20
75.30838
 30
0.0
 10
28.53181
 20
75.16658
 30
0.0
 10
28.53181
 20
75.16658
 30
0.0
 10
28.76531
 20
74.99578
 30
0.0
 10
28.88251
 20
74.77008
 30
0.0
 10
28.88251
 20
74.48928
 30
0.0
 10
28.88251
 20
74.48928
 30
0.0
 10
28.88251
 20
74.29798
 30
0.0
 10
28.81901
 20
74.13508
 30
0.0
 10
28.69271
 20
74.00168
 30
0.0
 10
28.69271
 20
74.00168
 30
0.0
 10
28.44571
 20
73.73998
 30
0.0
 10
28.12611
 20
73.60938
 30
0.0
 10
27.73381
 20
73.60938
 30
0.0
 10
27.73381
 20
73.60938
 30
0.0
 10
27.48341
 20
73.60938
 30
0.0
 10
27.24491
 20
73.65948
 30
0.0
 10
27.01911
 20
73.76038
 30
0.0
 10
27.01911
 20
73.76038
 30
0.0
 10
26.79331
 20
73.86058
 30
0.0
 10
26.59301
 20
74.00448
 30
0.0
 10
26.41801
 20
74.19078
 30
0.0
 10
26.41801
 20
74.19078
 30
0.0
 10
26.24371
 20
74.37778
 30
0.0
 10
26.12591
 20
74.55628
 30
0.0
 10
26.06521
 20
74.72698
 30
0.0
 10
26.06521
 20
74.72698
 30
0.0
 10
26.00451
 20
74.89778
 30
0.0
 10
25.97421
 20
75.05648
 30
0.0
 10
25.97421
 20
75.20398
 30
0.0
 10
25.97421
 20
75.20398
 30
0.0
 10
25.97421
 20
75.20398
 30
0.0
 10
25.97421
 20
75.32388
 30
0.0
 10
25.97421
 20
75.32388
 30
0.0
  0
SPLINE
  5
6B
330
1F
100
AcDbEntity
  8
layer 1
 62
   242
370
     9
100
AcDbSpline
210
0.0
220
0.0
230
1.0
 70
    11
 71
     3
 72
    44
 73
    40
 74
     0
 42
0.0000000001
 43
0.0000000001
 12
1.0
 22
0.0
 32
0.0
 13
1.0
 23
0.0
 33
0.0
 40
0.0
 40
0.0
 40
0.0
 40
0.0
 40
0.0909090909090909
 40
0.0909090909090909
 40
0.0909090909090909
 40
0.0909090909090909
 40
0.1818181818181818
 40
0.1818181818181818
 40
0.1818181818181818
 40
0.1818181818181818
 40
0.2727272727272727
 40
0.2727272727272727
 40
0.2727272727272727
 40
0.2727272727272727
 40
0.3636363636363636
 40
0.3636363636363636
 40
0.3636363636363636
 40
0.3636363636363636
 40
0.4545454545454545
 40
0.4545454545454545
 40
0.4545454545454545
 40
0.4545454545454545
 40
0.5454545454545454
 40
0.5454545454545454
 40
0.5454545454545454
 40
0.5454545454545454
 40
0.6363636363636364
 40
0.6363636363636364
 40
0.6363636363636364
 40
0.6363636363636364
 40
0.7272727272727273
 40
0.7272727272727273
 40
0.7272727272727273
 40
0.7272727272727273
 40
0.8181818181818182
 40
0.8181818181818182
 40
0.8181818181818182
 40
0.8181818181818182
 40
1.0
 40
1.0
 40
1.0
 40
1.0
 10
27.41991
 20
74.04118
 30
0.0
 10
27.60611
 20
74.01578
 30
0.0
 10
27.75641
 20
74.00308
 30
0.0
 10
27.87071
 20
74.00308
 30
0.0
 10
27.87071
 20
74.00308
 30
0.0
 10
28.00341
 20
74.00308
 30
0.0
 10
28.14661
 20
74.02778
 30
0.0
 10
28.30181
 20
74.07648
 30
0.0
 10
28.30181
 20
74.07648
 30
0.0
 10
28.45701
 20
74.12518
 30
0.0
 10
28.57981
 20
74.19788
 30
0.0
 10
28.67081
 20
74.29378
 30
0.0
 10
28.67081
 20
74.29378
 30
0.0
 10
28.73571
 20
74.36368
 30
0.0
 10
28.76821
 20
74.44898
 30
0.0
 10
28.76821
 20
74.54918
 30
0.0
 10
28.76821
 20
74.54918
 30
0.0
 10
28.76821
 20
74.66848
 30
0.0
 10
28.71171
 20
74.77568
 30
0.0
 10
28.59881
 20
74.86948
 30
0.0
 10
28.59881
 20
74.86948
 30
0.0
 10
28.48521
 20
74.96338
 30
0.0
 10
28.32441
 20
75.01068
 30
0.0
 10
28.11481
 20
75.01068
 30
0.0
 10
28.11481
 20
75.01068
 30
0.0
 10
27.87921
 20
75.01068
 30
0.0
 10
27.67531
 20
74.96408
 30
0.0
 10
27.50241
 20
74.87098
 30
0.0
 10
27.50241
 20
74.87098
 30
0.0
 10
27.33031
 20
74.77708
 30
0.0
 10
27.24421
 20
74.64518
 30
0.0
 10
27.24421
 20
74.47368
 30
0.0
 10
27.24421
 20
74.47368
 30
0.0
 10
27.24421
 20
74.42148
 30
0.0
 10
27.25551
 20
74.36508
 30
0.0
 10
27.27731
 20
74.30578
 30
0.0
 10
27.27731
 20
74.30578
 30
0.0
 10
27.29921
 20
74.24578
 30
0.0
 10
27.34721
 20
74.15758
 30
0.0
 10
27.41991
 20
74.04118
 30
0.0
  0
SPLINE
  5
6C
330
1F
100
AcDbEntity
  8
layer 1
 62
   242
370
     9
100
AcDbSpline
210
0.0
220
0.0
230
1.0
 70
    11
 71
     3
 72
    36
 73
    32
 74
     0
 42
0.0000000001
 43
0.0000000001
 12
1.0
 22
0.0
 32
0.0
 13
1.0
 23
0.0
 33
0.0
 40
0.0
 40
0.0
 40
0.0
 40
0.0
 40
0.1111111111111111
 40
0.1111111111111111
 40
0.1111111111111111
 40
0.1111111111111111
 40
0.2222222222222222
 40
0.2222222222222222
 40
0.2222222222222222
 40
0.2222222222222222
 40
0.3333333333333333
 40
0.3333333333333333
 40
0.3333333333333333
 40
0.3333333333333333
 40
0.4444444444444444
 40
0.4444444444444444
 40
0.4444444444444444
 40
0.4444444444444444
 40
0.5555555555555556
 40
0.5555555555555556
 40
0.5555555555555556
 40
0.5555555555555556
 40
0.6666666666666666
 40
0.6666666666666666
 40
0.6666666666666666
 40
0.6666666666666666
 40
0.7777777777777778
 40
0.7777777777777778
 40
0.7777777777777778
 40
0.7777777777777778
 40
1.0
 40
1.0
 40
1.0
 40
1.0
 10
28.43371
 20
76.07328
 30
0.0
 10
28.43371
 20
76.13748
 30
0.0
 10
28.45631
 20
76.19178
 30
0.0
 10
28.50081
 20
76.23618
 30
0.0
 10
28.50081
 20
76.23618
 30
0.0
 10
28.54521
 20
76.27998
 30
0.0
 10
28.59881
 20
76.30188
 30
0.0
 10
28.66231
 20
76.30188
 30
0.0
 10
28.66231
 20
76.30188
 30
0.0
 10
28.72511
 20
76.30188
 30
0.0
 10
28.77951
 20
76.27928
 30
0.0
 10
28.82391
 20
76.23478
 30
0.0
 10
28.82391
 20
76.23478
 30
0.0
 10
28.86841
 20
76.19038
 30
0.0
 10
28.89091
 20
76.13678
 30
0.0
 10
28.89091
 20
76.07328
 30
0.0
 10
28.89091
 20
76.07328
 30
0.0
 10
28.89091
 20
76.01048
 30
0.0
 10
28.86841
 20
75.95608
 30
0.0
 10
28.82391
 20
75.91168
 30
0.0
 10
28.82391
 20
75.91168
 30
0.0
 10
28.77951
 20
75.86718
 30
0.0
 10
28.72511
 20
75.84468
 30
0.0
 10
28.66231
 20
75.84468
 30
0.0
 10
28.66231
 20
75.84468
 30
0.0
 10
28.59811
 20
75.84468
 30
0.0
 10
28.54381
 20
75.86718
 30
0.0
 10
28.49941
 20
75.91168
 30
0.0
 10
28.49941
 20
75.91168
 30
0.0
 10
28.45561
 20
75.95608
 30
0.0
 10
28.43371
 20
76.01048
 30
0.0
 10
28.43371
 20
76.07328
 30
0.0
  0
SPLINE
  5
6D
330
1F
100
AcDbEntity
  8
layer 1
 62
   242
370
     9
100
AcDbSpline
210
0.0
220
0.0
230
1.0
 70
    11
 71
     3
 72
    44
 73
    40
 74
     0
 42
0.0000000001
 43
0.0000000001
 12
1.0
 22
0.0
 32
0.0
 13
1.0
 23
0.0
 33
0.0
 40
0.0
 40
0.0
 40
0.0
 40
0.0
 40
0.0909090909090909
 40
0.0909090909090909
 40
0.0909090909090909
 40
0.0909090909090909
 40
0.1818181818181818
 40
0.1818181818181818
 40
0.1818181818181818
 40
0.1818181818181818
 40
0.2727272727272727
 40
0.2727272727272727
 40
0.2727272727272727
 40
0.2727272727272727
 40
0.3636363636363636
 40
0.3636363636363636
 40
0.3636363636363636
 40
0.3636363636363636
 40
0.4545454545454545
 40
0.4545454545454545
 40
0.4545454545454545
 40
0.4545454545454545
 40
0.5454545454545454
 40
0.5454545454545454
 40
0.5454545454545454
 40
0.5454545454545454
 40
0.6363636363636364
 40
0.6363636363636364
 40
0.6363636363636364
 40
0.6363636363636364
 40
0.7272727272727273
 40
0.7272727272727273
 40
0.7272727272727273
 40
0.7272727272727273
 40
0.8181818181818182
 40
0.8181818181818182
 40
0.8181818181818182
 40
0.8181818181818182
 40
1.0
 40
1.0
 40
1.0
 40
1.0
 10
27.44881
 20
76.75478
 30
0.0
 10
27.12921
 20
76.75478
 30
0.0
 10
26.85471
 20
76.80278
 30
0.0
 10
26.62401
 20
76.89938
 30
0.0
 10
26.62401
 20
76.89938
 30
0.0
 10
26.39331
 20
76.99608
 30
0.0
 10
26.22111
 20
77.12378
 30
0.0
 10
26.10821
 20
77.28398
 30
0.0
 10
26.10821
 20
77.28398
 30
0.0
 10
26.01861
 20
77.40738
 30
0.0
 10
25.97421
 20
77.53578
 30
0.0
 10
25.97421
 20
77.66778
 30
0.0
 10
25.97421
 20
77.66778
 30
0.0
 10
25.97421
 20
77.88298
 30
0.0
 10
26.08351
 20
78.07558
 30
0.0
 10
26.30231
 20
78.24628
 30
0.0
 10
26.30231
 20
78.24628
 30
0.0
 10
26.57391
 20
78.46008
 30
0.0
 10
26.94151
 20
78.56668
 30
0.0
 10
27.40581
 20
78.56668
 30
0.0
 10
27.40581
 20
78.56668
 30
0.0
 10
27.73031
 20
78.56668
 30
0.0
 10
28.00691
 20
78.52008
 30
0.0
 10
28.23411
 20
78.42618
 30
0.0
 10
28.23411
 20
78.42618
 30
0.0
 10
28.46131
 20
78.33238
 30
0.0
 10
28.62561
 20
78.21318
 30
0.0
 10
28.72871
 20
78.06778
 30
0.0
 10
28.72871
 20
78.06778
 30
0.0
 10
28.83101
 20
77.92248
 30
0.0
 10
28.88251
 20
77.78208
 30
0.0
 10
28.88251
 20
77.64728
 30
0.0
 10
28.88251
 20
77.64728
 30
0.0
 10
28.88251
 20
77.37988
 30
0.0
 10
28.72511
 20
77.15768
 30
0.0
 10
28.40971
 20
76.97988
 30
0.0
 10
28.40971
 20
76.97988
 30
0.0
 10
28.14381
 20
76.82958
 30
0.0
 10
27.82341
 20
76.75478
 30
0.0
 10
27.44881
 20
76.75478
 30
0.0
  0
SPLINE
  5
6E
330
1F
100
AcDbEntity
  8
layer 1
 62
   242
370
     9
100
AcDbSpline
210
0.0
220
0.0
230
1.0
 70
    11
 71
     3
 72
    48
 73
    44
 74
     0
 42
0.0000000001
 43
0.0000000001
 12
1.0
 22
0.0
 32
0.0
 13
1.0
 23
0.0
 33
0.0
 40
0.0
 40
0.0
 40
0.0
 40
0.0
 40
0.0833333333333333
 40
0.0833333333333333
 40
0.0833333333333333
 40
0.0833333333333333
 40
0.1666666666666667
 40
0.1666666666666667
 40
0.1666666666666667
 40
0.1666666666666667
 40
0.25
 40
0.25
 40
0.25
 40
0.25
 40
0.3333333333333333
 40
0.3333333333333333
 40
0.3333333333333333
 40
0.3333333333333333
 40
0.4166666666666667
 40
0.4166666666666667
 40
0.4166666666666667
 40
0.4166666666666667
 40
0.5
 40
0.5
 40
0.5
 40
0.5
 40
0.5833333333333334
 40
0.5833333333333334
 40
0.5833333333333334
 40
0.5833333333333334
 40
0.6666666666666666
 40
0.6666666666666666
 40
0.6666666666666666
 40
0.6666666666666666
 40
0.75
 40
0.75
 40
0.75
 40
0.75
 40
0.8333333333333334
 40
0.8333333333333334
 40
0.8333333333333334
 40
0.8333333333333334
 40
1.0
 40
1.0
 40
1.0
 40
1.0
 10
27.49961
 20
77.16118
 30
0.0
 10
27.88481
 20
77.16118
 30
0.0
 10
28.19951
 20
77.20848
 30
0.0
 10
28.44361
 20
77.30298
 30
0.0
 10
28.44361
 20
77.30298
 30
0.0
 10
28.64891
 20
77.38128
 30
0.0
 10
28.75121
 20
77.49838
 30
0.0
 10
28.75121
 20
77.65368
 30
0.0
 10
28.75121
 20
77.65368
 30
0.0
 10
28.75121
 20
77.72778
 30
0.0
 10
28.71811
 20
77.80468
 30
0.0
 10
28.65101
 20
77.88438
 30
0.0
 10
28.65101
 20
77.88438
 30
0.0
 10
28.58401
 20
77.96408
 30
0.0
 10
28.47251
 20
78.02408
 30
0.0
 10
28.31521
 20
78.06568
 30
0.0
 10
28.31521
 20
78.06568
 30
0.0
 10
28.07881
 20
78.12848
 30
0.0
 10
27.74441
 20
78.16028
 30
0.0
 10
27.31401
 20
78.16028
 30
0.0
 10
27.31401
 20
78.16028
 30
0.0
 10
26.99441
 20
78.16028
 30
0.0
 10
26.72771
 20
78.12708
 30
0.0
 10
26.51461
 20
78.06148
 30
0.0
 10
26.51461
 20
78.06148
 30
0.0
 10
26.35591
 20
78.01208
 30
0.0
 10
26.24371
 20
77.94788
 30
0.0
 10
26.17811
 20
77.86958
 30
0.0
 10
26.17811
 20
77.86958
 30
0.0
 10
26.13221
 20
77.81378
 30
0.0
 10
26.10971
 20
77.74538
 30
0.0
 10
26.10971
 20
77.66568
 30
0.0
 10
26.10971
 20
77.66568
 30
0.0
 10
26.10971
 20
77.57248
 30
0.0
 10
26.15201
 20
77.48928
 30
0.0
 10
26.23591
 20
77.41658
 30
0.0
 10
26.23591
 20
77.41658
 30
0.0
 10
26.35021
 20
77.31778
 30
0.0
 10
26.52951
 20
77.25008
 30
0.0
 10
26.77501
 20
77.21478
 30
0.0
 10
26.77501
 20
77.21478
 30
0.0
 10
27.01981
 20
77.17878
 30
0.0
 10
27.26111
 20
77.16118
 30
0.0
 10
27.49961
 20
77.16118
 30
0.0
  0
SPLINE
  5
6F
330
1F
100
AcDbEntity
  8
layer 1
 62
   242
370
     9
100
AcDbSpline
210
0.0
220
0.0
230
1.0
 70
    24
 71
     3
 72
     8
 73
     4
 74
     0
 42
0.0000000001
 43
0.0000000001
 12
1.0
 22
0.0
 32
0.0
 13
1.0
 23
0.0
 33
0.0
 40
0.0
 40
0.0
 40
0.0
 40
0.0
 40
1.0
 40
1.0
 40
1.0
 40
1.0
 10
18.18341
 20
55.78818
 30
0.0
 10
18.18341
 20
55.78818
 30
0.0
 10
18.18341
 20
13.50518
 30
0.0
 10
18.18341
 20
13.50518
 30
0.0
  0
SPLINE
  5
70
330
1F
100
AcDbEntity
  8
layer 1
 62
   242
370
     9
100
AcDbSpline
210
0.0
220
0.0
230
1.0
 70
    24
 71
     3
 72
     8
 73
     4
 74
     0
 42
0.0000000001
 43
0.0000000001
 12
1.0
 22
0.0
 32
0.0
 13
1.0
 23
0.0
 33
0.0
 40
0.0
 40
0.0
 40
0.0
 40
0.0
 40
1.0
 40
1.0
 40
1.0
 40
1.0
 10
-90.31659
 20
55.78818
 30
0.0
 10
-90.31659
 20
55.78818
 30
0.0
 10
-90.31659
 20
13.50518
 30
0.0
 10
-90.31659
 20
13.50518
 30
0.0
  0
SPLINE
  5
71
330
1F
100
AcDbEntity
  8
layer 1
 62
   242
370
     9
100
AcDbSpline
210
0.0
220
0.0
230
1.0
 70
    24
 71
     3
 72
     8
 73
     4
 74
     0
 42
0.0000000001
 43
0.0000000001
 12
1.0
 22
0.0
 32
0.0
 13
1.0
 23
0.0
 33
0.0
 40
0.0
 40
0.0
 40
0.0
 40
0.0
 40
1.0
 40
1.0
 40
1.0
 40
1.0
 10
-90.31659
 20
18.58518
 30
0.0
 10
-90.31659
 20
18.58518
 30
0.0
 10
18.18341
 20
18.58518
 30
0.0
 10
18.18341
 20
18.58518
 30
0.0
  0
SPLINE
  5
72
330
1F
100
AcDbEntity
  8
layer 1
 62
   242
370
     9
100
AcDbSpline
210
0.0
220
0.0
230
1.0
 70
    24
 71
     3
 72
     8
 73
     4
 74
     0
 42
0.0000000001
 43
0.0000000001
 12
1.0
 22
0.0
 32
0.0
 13
1.0
 23
0.0
 33
0.0
 40
0.0
 40
0.0
 40
0.0
 40
0.0
 40
1.0
 40
1.0
 40
1.0
 40
1.0
 10
8.43341
 20
37.03818
 30
0.0
 10
8.43341
 20
37.03818
 30
0.0
 10
8.43341
 20
19.90678
 30
0.0
 10
8.43341
 20
19.90678
 30
0.0
  0
SPLINE
  5
73
330
1F
100
AcDbEntity
  8
layer 1
 62
   242
370
     9
100
AcDbSpline
210
0.0
220
0.0
230
1.0
 70
    24
 71
     3
 72
     8
 73
     4
 74
     0
 42
0.0000000001
 43
0.0000000001
 12
1.0
 22
0.0
 32
0.0
 13
1.0
 23
0.0
 33
0.0
 40
0.0
 40
0.0
 40
0.0
 40
0.0
 40
1.0
 40
1.0
 40
1.0
 40
1.0
 10
-80.56659
 20
37.03818
 30
0.0
 10
-80.56659
 20
37.03818
 30
0.0
 10
-80.56659
 20
19.90678
 30
0.0
 10
-80.56659
 20
19.90678
 30
0.0
  0
SPLINE
  5
74
330
1F
100
AcDbEntity
  8
layer 1
 62
   242
370
     9
100
AcDbSpline
210
0.0
220
0.0
230
1.0
 70
    24
 71
     3
 72
     8
 73
     4
 74
     0
 42
0.0000000001
 43
0.0000000001
 12
1.0
 22
0.0
 32
0.0
 13
1.0
 23
0.0
 33
0.0
 40
0.0
 40
0.0
 40
0.0
 40
0.0
 40
1.0
 40
1.0
 40
1.0
 40
1.0
 10
-80.56659
 20
24.98678
 30
0.0
 10
-80.56659
 20
24.98678
 30
0.0
 10
8.43341
 20
24.98678
 30
0.0
 10
8.43341
 20
24.98678
 30
0.0
  0
SPLINE
  5
75
330
1F
100
AcDbEntity
  8
layer 1
 62
   242
370
     9
100
AcDbSpline
210
0.0
220
0.0
230
1.0
 70
    24
 71
     3
 72
     8
 73
     4
 74
     0
 42
0.0000000001
 43
0.0000000001
 12
1.0
 22
0.0
 32
0.0
 13
1.0
 23
0.0
 33
0.0
 40
0.0
 40
0.0
 40
0.0
 40
0.0
 40
1.0
 40
1.0
 40
1.0
 40
1.0
 10
7.97341
 20
36.57818
 30
0.0
 10
7.97341
 20
36.57818
 30
0.0
 10
41.77691
 20
36.57818
 30
0.0
 10
41.77691
 20
36.57818
 30
0.0
  0
SPLINE
  5
76
330
1F
100
AcDbEntity
  8
layer 1
 62
   242
370
     9
100
AcDbSpline
210
0.0
220
0.0
230
1.0
 70
    24
 71
     3
 72
     8
 73
     4
 74
     0
 42
0.0000000001
 43
0.0000000001
 12
1.0
 22
0.0
 32
0.0
 13
1.0
 23
0.0
 33
0.0
 40
0.0
 40
0.0
 40
0.0
 40
0.0
 40
1.0
 40
1.0
 40
1.0
 40
1.0
 10
7.97341
 20
120.07818
 30
0.0
 10
7.97341
 20
120.07818
 30
0.0
 10
41.77691
 20
120.07818
 30
0.0
 10
41.77691
 20
120.07818
 30
0.0
  0
SPLINE
  5
77
330
1F
100
AcDbEntity
  8
layer 1
 62
   242
370
     9
100
AcDbSpline
210
0.0
220
0.0
230
1.0
 70
    24
 71
     3
 72
     8
 73
     4
 74
     0
 42
0.0000000001
 43
0.0000000001
 12
1.0
 22
0.0
 32
0.0
 13
1.0
 23
0.0
 33
0.0
 40
0.0
 40
0.0
 40
0.0
 40
0.0
 40
1.0
 40
1.0
 40
1.0
 40
1.0
 10
36.69691
 20
120.07818
 30
0.0
 10
36.69691
 20
120.07818
 30
0.0
 10
36.69691
 20
36.57818
 30
0.0
 10
36.69691
 20
36.57818
 30
0.0
  0
SPLINE
  5
78
330
1F
100
AcDbEntity
  8
layer 1
 62
   242
370
     9
100
AcDbSpline
210
0.0
220
0.0
230
1.0
 70
    24
 71
     3
 72
     8
 73
     4
 74
     0
 42
0.0000000001
 43
0.0000000001
 12
1.0
 22
0.0
 32
0.0
 13
1.0
 23
0.0
 33
0.0
 40
0.0
 40
0.0
 40
0.0
 40
0.0
 40
1.0
 40
1.0
 40
1.0
 40
1.0
 10
17.72341
 20
55.32818
 30
0.0
 10
17.72341
 20
55.32818
 30
0.0
 10
35.37531
 20
55.32818
 30
0.0
 10
35.37531
 20
55.32818
 30
0.0
  0
SPLINE
  5
79
330
1F
100
AcDbEntity
  8
layer 1
 62
   242
370
     9
100
AcDbSpline
210
0.0
220
0.0
230
1.0
 70
    24
 71
     3
 72
     8
 73
     4
 74
     0
 42
0.0000000001
 43
0.0000000001
 12
1.0
 22
0.0
 32
0.0
 13
1.0
 23
0.0
 33
0.0
 40
0.0
 40
0.0
 40
0.0
 40
0.0
 40
1.0
 40
1.0
 40
1.0
 40
1.0
 10
17.72341
 20
101.32818
 30
0.0
 10
17.72341
 20
101.32818
 30
0.0
 10
35.37531
 20
101.32818
 30
0.0
 10
35.37531
 20
101.32818
 30
0.0
  0
SPLINE
  5
7A
330
1F
100
AcDbEntity
  8
layer 1
 62
   242
370
     9
100
AcDbSpline
210
0.0
220
0.0
230
1.0
 70
    24
 71
     3
 72
     8
 73
     4
 74
     0
 42
0.0000000001
 43
0.0000000001
 12
1.0
 22
0.0
 32
0.0
 13
1.0
 23
0.0
 33
0.0
 40
0.0
 40
0.0
 40
0.0
 40
0.0
 40
1.0
 40
1.0
 40
1.0
 40
1.0
 10
30.29531
 20
101.32818
 30
0.0
 10
30.29531
 20
101.32818
 30
0.0
 10
30.29531
 20
55.32818
 30
0.0
 10
30.29531
 20
55.32818
 30
0.0
  0
SPLINE
  5
7B
330
1F
100
AcDbEntity
  8
layer 1
 62
   242
370
     9
100
AcDbSpline
210
0.0
220
0.0
230
1.0
 70
    11
 71
     3
 72
   144
 73
   140
 74
     0
 42
0.0000000001
 43
0.0000000001
 12
1.0
 22
0.0
 32
0.0
 13
1.0
 23
0.0
 33
0.0
 40
0.0
 40
0.0
 40
0.0
 40
0.0
 40
0.0277777777777778
 40
0.0277777777777778
 40
0.0277777777777778
 40
0.0277777777777778
 40
0.0555555555555556
 40
0.0555555555555556
 40
0.0555555555555556
 40
0.0555555555555556
 40
0.0833333333333333
 40
0.0833333333333333
 40
0.0833333333333333
 40
0.0833333333333333
 40
0.1111111111111111
 40
0.1111111111111111
 40
0.1111111111111111
 40
0.1111111111111111
 40
0.1388888888888889
 40
0.1388888888888889
 40
0.1388888888888889
 40
0.1388888888888889
 40
0.1666666666666667
 40
0.1666666666666667
 40
0.1666666666666667
 40
0.1666666666666667
 40
0.1944444444444444
 40
0.1944444444444444
 40
0.1944444444444444
 40
0.1944444444444444
 40
0.2222222222222222
 40
0.2222222222222222
 40
0.2222222222222222
 40
0.2222222222222222
 40
0.25
 40
0.25
 40
0.25
 40
0.25
 40
0.2777777777777778
 40
0.2777777777777778
 40
0.2777777777777778
 40
0.2777777777777778
 40
0.3055555555555556
 40
0.3055555555555556
 40
0.3055555555555556
 40
0.3055555555555556
 40
0.3333333333333333
 40
0.3333333333333333
 40
0.3333333333333333
 40
0.3333333333333333
 40
0.3611111111111111
 40
0.3611111111111111
 40
0.3611111111111111
 40
0.3611111111111111
 40
0.3888888888888889
 40
0.3888888888888889
 40
0.3888888888888889
 40
0.3888888888888889
 40
0.4166666666666667
 40
0.4166666666666667
 40
0.4166666666666667
 40
0.4166666666666667
 40
0.4444444444444444
 40
0.4444444444444444
 40
0.4444444444444444
 40
0.4444444444444444
 40
0.4722222222222222
 40
0.4722222222222222
 40
0.4722222222222222
 40
0.4722222222222222
 40
0.5
 40
0.5
 40
0.5
 40
0.5
 40
0.5277777777777778
 40
0.5277777777777778
 40
0.5277777777777778
 40
0.5277777777777778
 40
0.5555555555555556
 40
0.5555555555555556
 40
0.5555555555555556
 40
0.5555555555555556
 40
0.5833333333333334
 40
0.5833333333333334
 40
0.5833333333333334
 40
0.5833333333333334
 40
0.6111111111111112
 40
0.6111111111111112
 40
0.6111111111111112
 40
0.6111111111111112
 40
0.6388888888888888
 40
0.6388888888888888
 40
0.6388888888888888
 40
0.6388888888888888
 40
0.6666666666666666
 40
0.6666666666666666
 40
0.6666666666666666
 40
0.6666666666666666
 40
0.6944444444444444
 40
0.6944444444444444
 40
0.6944444444444444
 40
0.6944444444444444
 40
0.7222222222222222
 40
0.7222222222222222
 40
0.7222222222222222
 40
0.7222222222222222
 40
0.75
 40
0.75
 40
0.75
 40
0.75
 40
0.7777777777777778
 40
0.7777777777777778
 40
0.7777777777777778
 40
0.7777777777777778
 40
0.8055555555555556
 40
0.8055555555555556
 40
0.8055555555555556
 40
0.8055555555555556
 40
0.8333333333333334
 40
0.8333333333333334
 40
0.8333333333333334
 40
0.8333333333333334
 40
0.8611111111111112
 40
0.8611111111111112
 40
0.8611111111111112
 40
0.8611111111111112
 40
0.8888888888888888
 40
0.8888888888888888
 40
0.8888888888888888
 40
0.8888888888888888
 40
0.9166666666666666
 40
0.9166666666666666
 40
0.9166666666666666
 40
0.9166666666666666
 40
0.9444444444444444
 40
0.9444444444444444
 40
0.9444444444444444
 40
0.9444444444444444
 40
1.0
 40
1.0
 40
1.0
 40
1.0
 10
-77.56659
 20
120.07818
 30
0.0
 10
-77.56659
 20
120.07818
 30
0.0
 10
-74.56659
 20
120.07818
 30
0.0
 10
-74.56659
 20
120.07818
 30
0.0
 10
-74.56659
 20
120.07818
 30
0.0
 10
-74.56659
 20
120.07818
 30
0.0
 10
2.43341
 20
120.07818
 30
0.0
 10
2.43341
 20
120.07818
 30
0.0
 10
2.43341
 20
120.07818
 30
0.0
 10
2.43341
 20
120.07818
 30
0.0
 10
5.43341
 20
120.07818
 30
0.0
 10
5.43341
 20
120.07818
 30
0.0
 10
5.43341
 20
120.07818
 30
0.0
 10
7.08351
 20
120.07818
 30
0.0
 10
8.43341
 20
118.72828
 30
0.0
 10
8.43341
 20
117.07818
 30
0.0
 10
8.43341
 20
117.07818
 30
0.0
 10
8.43341
 20
117.07818
 30
0.0
 10
8.43341
 20
114.07818
 30
0.0
 10
8.43341
 20
114.07818
 30
0.0
 10
8.43341
 20
114.07818
 30
0.0
 10
8.43341
 20
114.07818
 30
0.0
 10
8.43341
 20
107.32818
 30
0.0
 10
8.43341
 20
107.32818
 30
0.0
 10
8.43341
 20
107.32818
 30
0.0
 10
8.43341
 20
104.03048
 30
0.0
 10
11.13571
 20
101.32818
 30
0.0
 10
14.43341
 20
101.32818
 30
0.0
 10
14.43341
 20
101.32818
 30
0.0
 10
14.43341
 20
101.32818
 30
0.0
 10
15.18341
 20
101.32818
 30
0.0
 10
15.18341
 20
101.32818
 30
0.0
 10
15.18341
 20
101.32818
 30
0.0
 10
16.83351
 20
101.32818
 30
0.0
 10
18.18341
 20
99.97828
 30
0.0
 10
18.18341
 20
98.32818
 30
0.0
 10
18.18341
 20
98.32818
 30
0.0
 10
18.18341
 20
98.32818
 30
0.0
 10
18.18341
 20
95.32818
 30
0.0
 10
18.18341
 20
95.32818
 30
0.0
 10
18.18341
 20
95.32818
 30
0.0
 10
18.18341
 20
95.32818
 30
0.0
 10
18.18341
 20
61.32818
 30
0.0
 10
18.18341
 20
61.32818
 30
0.0
 10
18.18341
 20
61.32818
 30
0.0
 10
18.18341
 20
61.32818
 30
0.0
 10
18.18341
 20
58.32818
 30
0.0
 10
18.18341
 20
58.32818
 30
0.0
 10
18.18341
 20
58.32818
 30
0.0
 10
18.18341
 20
56.67808
 30
0.0
 10
16.83351
 20
55.32818
 30
0.0
 10
15.18341
 20
55.32818
 30
0.0
 10
15.18341
 20
55.32818
 30
0.0
 10
15.18341
 20
55.32818
 30
0.0
 10
14.43341
 20
55.32818
 30
0.0
 10
14.43341
 20
55.32818
 30
0.0
 10
14.43341
 20
55.32818
 30
0.0
 10
11.13571
 20
55.32818
 30
0.0
 10
8.43341
 20
52.62588
 30
0.0
 10
8.43341
 20
49.32818
 30
0.0
 10
8.43341
 20
49.32818
 30
0.0
 10
8.43341
 20
49.32818
 30
0.0
 10
8.43341
 20
42.57818
 30
0.0
 10
8.43341
 20
42.57818
 30
0.0
 10
8.43341
 20
42.57818
 30
0.0
 10
8.43341
 20
42.57818
 30
0.0
 10
8.43341
 20
39.57818
 30
0.0
 10
8.43341
 20
39.57818
 30
0.0
 10
8.43341
 20
39.57818
 30
0.0
 10
8.43341
 20
37.92808
 30
0.0
 10
7.08351
 20
36.57818
 30
0.0
 10
5.43341
 20
36.57818
 30
0.0
 10
5.43341
 20
36.57818
 30
0.0
 10
5.43341
 20
36.57818
 30
0.0
 10
2.43341
 20
36.57818
 30
0.0
 10
2.43341
 20
36.57818
 30
0.0
 10
2.43341
 20
36.57818
 30
0.0
 10
2.43341
 20
36.57818
 30
0.0
 10
-74.56659
 20
36.57818
 30
0.0
 10
-74.56659
 20
36.57818
 30
0.0
 10
-74.56659
 20
36.57818
 30
0.0
 10
-74.56659
 20
36.57818
 30
0.0
 10
-77.56659
 20
36.57818
 30
0.0
 10
-77.56659
 20
36.57818
 30
0.0
 10
-77.56659
 20
36.57818
 30
0.0
 10
-79.21669
 20
36.57818
 30
0.0
 10
-80.56659
 20
37.92808
 30
0.0
 10
-80.56659
 20
39.57818
 30
0.0
 10
-80.56659
 20
39.57818
 30
0.0
 10
-80.56659
 20
39.57818
 30
0.0
 10
-80.56659
 20
42.57818
 30
0.0
 10
-80.56659
 20
42.57818
 30
0.0
 10
-80.56659
 20
42.57818
 30
0.0
 10
-80.56659
 20
42.57818
 30
0.0
 10
-80.56659
 20
49.32818
 30
0.0
 10
-80.56659
 20
49.32818
 30
0.0
 10
-80.56659
 20
49.32818
 30
0.0
 10
-80.56659
 20
52.62588
 30
0.0
 10
-83.26889
 20
55.32818
 30
0.0
 10
-86.56659
 20
55.32818
 30
0.0
 10
-86.56659
 20
55.32818
 30
0.0
 10
-86.56659
 20
55.32818
 30
0.0
 10
-87.31659
 20
55.32818
 30
0.0
 10
-87.31659
 20
55.32818
 30
0.0
 10
-87.31659
 20
55.32818
 30
0.0
 10
-88.96669
 20
55.32818
 30
0.0
 10
-90.31659
 20
56.67808
 30
0.0
 10
-90.31659
 20
58.32818
 30
0.0
 10
-90.31659
 20
58.32818
 30
0.0
 10
-90.31659
 20
58.32818
 30
0.0
 10
-90.31659
 20
95.32818
 30
0.0
 10
-90.31659
 20
95.32818
 30
0.0
 10
-90.31659
 20
95.32818
 30
0.0
 10
-90.31659
 20
95.32818
 30
0.0
 10
-90.31659
 20
98.32818
 30
0.0
 10
-90.31659
 20
98.32818
 30
0.0
 10
-90.31659
 20
98.32818
 30
0.0
 10
-90.31659
 20
99.97828
 30
0.0
 10
-88.96669
 20
101.32818
 30
0.0
 10
-87.31659
 20
101.32818
 30
0.0
 10
-87.31659
 20
101.32818
 30
0.0
 10
-87.31659
 20
101.32818
 30
0.0
 10
-86.56659
 20
101.32818
 30
0.0
 10
-86.56659
 20
101.32818
 30
0.0
 10
-86.56659
 20
101.32818
 30
0.0
 10
-83.26889
 20
101.32818
 30
0.0
 10
-80.56659
 20
104.03048
 30
0.0
 10
-80.56659
 20
107.32818
 30
0.0
 10
-80.56659
 20
107.32818
 30
0.0
 10
-80.56659
 20
107.32818
 30
0.0
 10
-80.56659
 20
114.07818
 30
0.0
 10
-80.56659
 20
114.07818
 30
0.0
 10
-80.56659
 20
114.07818
 30
0.0
 10
-80.56659
 20
114.07818
 30
0.0
 10
-80.56659
 20
117.07818
 30
0.0
 10
-80.56659
 20
117.07818
 30
0.0
 10
-80.56659
 20
117.07818
 30
0.0
 10
-80.56659
 20
118.72828
 30
0.0
 10
-79.21669
 20
120.07818
 30
0.0
 10
-77.56659
 20
120.07818
 30
0.0
  0
SPLINE
  5
7C
330
1F
100
AcDbEntity
  8
layer 1
 62
   242
370
     9
100
AcDbSpline
210
0.0
220
0.0
230
1.0
 70
    11
 71
     3
 72
    76
 73
    72
 74
     0
 42
0.0000000001
 43
0.0000000001
 12
1.0
 22
0.0
 32
0.0
 13
1.0
 23
0.0
 33
0.0
 40
0.0
 40
0.0
 40
0.0
 40
0.0
 40
0.0526315789473684
 40
0.0526315789473684
 40
0.0526315789473684
 40
0.0526315789473684
 40
0.1052631578947368
 40
0.1052631578947368
 40
0.1052631578947368
 40
0.1052631578947368
 40
0.1578947368421053
 40
0.1578947368421053
 40
0.1578947368421053
 40
0.1578947368421053
 40
0.2105263157894737
 40
0.2105263157894737
 40
0.2105263157894737
 40
0.2105263157894737
 40
0.2631578947368421
 40
0.2631578947368421
 40
0.2631578947368421
 40
0.2631578947368421
 40
0.3157894736842105
 40
0.3157894736842105
 40
0.3157894736842105
 40
0.3157894736842105
 40
0.3684210526315789
 40
0.3684210526315789
 40
0.3684210526315789
 40
0.3684210526315789
 40
0.4210526315789473
 40
0.4210526315789473
 40
0.4210526315789473
 40
0.4210526315789473
 40
0.4736842105263158
 40
0.4736842105263158
 40
0.4736842105263158
 40
0.4736842105263158
 40
0.5263157894736842
 40
0.5263157894736842
 40
0.5263157894736842
 40
0.5263157894736842
 40
0.5789473684210527
 40
0.5789473684210527
 40
0.5789473684210527
 40
0.5789473684210527
 40
0.631578947368421
 40
0.631578947368421
 40
0.631578947368421
 40
0.631578947368421
 40
0.6842105263157895
 40
0.6842105263157895
 40
0.6842105263157895
 40
0.6842105263157895
 40
0.7368421052631579
 40
0.7368421052631579
 40
0.7368421052631579
 40
0.7368421052631579
 40
0.7894736842105263
 40
0.7894736842105263
 40
0.7894736842105263
 40
0.7894736842105263
 40
0.8421052631578947
 40
0.8421052631578947
 40
0.8421052631578947
 40
0.8421052631578947
 40
0.8947368421052632
 40
0.8947368421052632
 40
0.8947368421052632
 40
0.8947368421052632
 40
1.0
 40
1.0
 40
1.0
 40
1.0
 10
-36.33039
 20
16.17448
 30
0.0
 10
-36.33039
 20
16.17448
 30
0.0
 10
-35.64529
 20
16.50468
 30
0.0
 10
-35.64529
 20
16.50468
 30
0.0
 10
-35.64529
 20
16.50468
 30
0.0
 10
-35.64529
 20
16.50468
 30
0.0
 10
-35.57689
 20
16.50468
 30
0.0
 10
-35.57689
 20
16.50468
 30
0.0
 10
-35.57689
 20
16.50468
 30
0.0
 10
-35.57689
 20
16.50468
 30
0.0
 10
-35.57689
 20
14.13828
 30
0.0
 10
-35.57689
 20
14.13828
 30
0.0
 10
-35.57689
 20
14.13828
 30
0.0
 10
-35.57689
 20
13.98098
 30
0.0
 10
-35.57059
 20
13.88218
 30
0.0
 10
-35.55719
 20
13.84338
 30
0.0
 10
-35.55719
 20
13.84338
 30
0.0
 10
-35.54369
 20
13.80528
 30
0.0
 10
-35.51689
 20
13.77488
 30
0.0
 10
-35.47529
 20
13.75448
 30
0.0
 10
-35.47529
 20
13.75448
 30
0.0
 10
-35.43369
 20
13.73398
 30
0.0
 10
-35.34899
 20
13.72198
 30
0.0
 10
-35.22129
 20
13.71918
 30
0.0
 10
-35.22129
 20
13.71918
 30
0.0
 10
-35.22129
 20
13.71918
 30
0.0
 10
-35.22129
 20
13.64298
 30
0.0
 10
-35.22129
 20
13.64298
 30
0.0
 10
-35.22129
 20
13.64298
 30
0.0
 10
-35.22129
 20
13.64298
 30
0.0
 10
-36.27959
 20
13.64298
 30
0.0
 10
-36.27959
 20
13.64298
 30
0.0
 10
-36.27959
 20
13.64298
 30
0.0
 10
-36.27959
 20
13.64298
 30
0.0
 10
-36.27959
 20
13.71918
 30
0.0
 10
-36.27959
 20
13.71918
 30
0.0
 10
-36.27959
 20
13.71918
 30
0.0
 10
-36.14699
 20
13.72198
 30
0.0
 10
-36.06159
 20
13.73328
 30
0.0
 10
-36.02349
 20
13.75378
 30
0.0
 10
-36.02349
 20
13.75378
 30
0.0
 10
-35.98469
 20
13.77348
 30
0.0
 10
-35.95789
 20
13.80028
 30
0.0
 10
-35.94239
 20
13.83418
 30
0.0
 10
-35.94239
 20
13.83418
 30
0.0
 10
-35.92759
 20
13.86808
 30
0.0
 10
-35.91979
 20
13.96968
 30
0.0
 10
-35.91979
 20
14.13828
 30
0.0
 10
-35.91979
 20
14.13828
 30
0.0
 10
-35.91979
 20
14.13828
 30
0.0
 10
-35.91979
 20
15.65378
 30
0.0
 10
-35.91979
 20
15.65378
 30
0.0
 10
-35.91979
 20
15.65378
 30
0.0
 10
-35.91979
 20
15.85768
 30
0.0
 10
-35.92689
 20
15.98898
 30
0.0
 10
-35.94029
 20
16.04678
 30
0.0
 10
-35.94029
 20
16.04678
 30
0.0
 10
-35.95009
 20
16.09128
 30
0.0
 10
-35.96779
 20
16.12368
 30
0.0
 10
-35.99319
 20
16.14418
 30
0.0
 10
-35.99319
 20
16.14418
 30
0.0
 10
-36.01929
 20
16.16458
 30
0.0
 10
-36.04959
 20
16.17518
 30
0.0
 10
-36.08559
 20
16.17518
 30
0.0
 10
-36.08559
 20
16.17518
 30
0.0
 10
-36.13709
 20
16.17518
 30
0.0
 10
-36.20839
 20
16.15408
 30
0.0
 10
-36.29939
 20
16.11098
 30
0.0
 10
-36.29939
 20
16.11098
 30
0.0
 10
-36.29939
 20
16.11098
 30
0.0
 10
-36.33039
 20
16.17448
 30
0.0
 10
-36.33039
 20
16.17448
 30
0.0
  0
SPLINE
  5
7D
330
1F
100
AcDbEntity
  8
layer 1
 62
   242
370
     9
100
AcDbSpline
210
0.0
220
0.0
230
1.0
 70
    11
 71
     3
 72
    76
 73
    72
 74
     0
 42
0.0000000001
 43
0.0000000001
 12
1.0
 22
0.0
 32
0.0
 13
1.0
 23
0.0
 33
0.0
 40
0.0
 40
0.0
 40
0.0
 40
0.0
 40
0.0526315789473684
 40
0.0526315789473684
 40
0.0526315789473684
 40
0.0526315789473684
 40
0.1052631578947368
 40
0.1052631578947368
 40
0.1052631578947368
 40
0.1052631578947368
 40
0.1578947368421053
 40
0.1578947368421053
 40
0.1578947368421053
 40
0.1578947368421053
 40
0.2105263157894737
 40
0.2105263157894737
 40
0.2105263157894737
 40
0.2105263157894737
 40
0.2631578947368421
 40
0.2631578947368421
 40
0.2631578947368421
 40
0.2631578947368421
 40
0.3157894736842105
 40
0.3157894736842105
 40
0.3157894736842105
 40
0.3157894736842105
 40
0.3684210526315789
 40
0.3684210526315789
 40
0.3684210526315789
 40
0.3684210526315789
 40
0.4210526315789473
 40
0.4210526315789473
 40
0.4210526315789473
 40
0.4210526315789473
 40
0.4736842105263158
 40
0.4736842105263158
 40
0.4736842105263158
 40
0.4736842105263158
 40
0.5263157894736842
 40
0.5263157894736842
 40
0.5263157894736842
 40
0.5263157894736842
 40
0.5789473684210527
 40
0.5789473684210527
 40
0.5789473684210527
 40
0.5789473684210527
 40
0.631578947368421
 40
0.631578947368421
 40
0.631578947368421
 40
0.631578947368421
 40
0.6842105263157895
 40
0.6842105263157895
 40
0.6842105263157895
 40
0.6842105263157895
 40
0.7368421052631579
 40
0.7368421052631579
 40
0.7368421052631579
 40
0.7368421052631579
 40
0.7894736842105263
 40
0.7894736842105263
 40
0.7894736842105263
 40
0.7894736842105263
 40
0.8421052631578947
 40
0.8421052631578947
 40
0.8421052631578947
 40
0.8421052631578947
 40
0.8947368421052632
 40
0.8947368421052632
 40
0.8947368421052632
 40
0.8947368421052632
 40
1.0
 40
1.0
 40
1.0
 40
1.0
 10
-34.37099
 20
16.17448
 30
0.0
 10
-34.37099
 20
16.17448
 30
0.0
 10
-33.68589
 20
16.50468
 30
0.0
 10
-33.68589
 20
16.50468
 30
0.0
 10
-33.68589
 20
16.50468
 30
0.0
 10
-33.68589
 20
16.50468
 30
0.0
 10
-33.61749
 20
16.50468
 30
0.0
 10
-33.61749
 20
16.50468
 30
0.0
 10
-33.61749
 20
16.50468
 30
0.0
 10
-33.61749
 20
16.50468
 30
0.0
 10
-33.61749
 20
14.13828
 30
0.0
 10
-33.61749
 20
14.13828
 30
0.0
 10
-33.61749
 20
14.13828
 30
0.0
 10
-33.61749
 20
13.98098
 30
0.0
 10
-33.61119
 20
13.88218
 30
0.0
 10
-33.59779
 20
13.84338
 30
0.0
 10
-33.59779
 20
13.84338
 30
0.0
 10
-33.58429
 20
13.80528
 30
0.0
 10
-33.55749
 20
13.77488
 30
0.0
 10
-33.51589
 20
13.75448
 30
0.0
 10
-33.51589
 20
13.75448
 30
0.0
 10
-33.47429
 20
13.73398
 30
0.0
 10
-33.38959
 20
13.72198
 30
0.0
 10
-33.26189
 20
13.71918
 30
0.0
 10
-33.26189
 20
13.71918
 30
0.0
 10
-33.26189
 20
13.71918
 30
0.0
 10
-33.26189
 20
13.64298
 30
0.0
 10
-33.26189
 20
13.64298
 30
0.0
 10
-33.26189
 20
13.64298
 30
0.0
 10
-33.26189
 20
13.64298
 30
0.0
 10
-34.32019
 20
13.64298
 30
0.0
 10
-34.32019
 20
13.64298
 30
0.0
 10
-34.32019
 20
13.64298
 30
0.0
 10
-34.32019
 20
13.64298
 30
0.0
 10
-34.32019
 20
13.71918
 30
0.0
 10
-34.32019
 20
13.71918
 30
0.0
 10
-34.32019
 20
13.71918
 30
0.0
 10
-34.18759
 20
13.72198
 30
0.0
 10
-34.10219
 20
13.73328
 30
0.0
 10
-34.06409
 20
13.75378
 30
0.0
 10
-34.06409
 20
13.75378
 30
0.0
 10
-34.02529
 20
13.77348
 30
0.0
 10
-33.99849
 20
13.80028
 30
0.0
 10
-33.98299
 20
13.83418
 30
0.0
 10
-33.98299
 20
13.83418
 30
0.0
 10
-33.96819
 20
13.86808
 30
0.0
 10
-33.96039
 20
13.96968
 30
0.0
 10
-33.96039
 20
14.13828
 30
0.0
 10
-33.96039
 20
14.13828
 30
0.0
 10
-33.96039
 20
14.13828
 30
0.0
 10
-33.96039
 20
15.65378
 30
0.0
 10
-33.96039
 20
15.65378
 30
0.0
 10
-33.96039
 20
15.65378
 30
0.0
 10
-33.96039
 20
15.85768
 30
0.0
 10
-33.96749
 20
15.98898
 30
0.0
 10
-33.98089
 20
16.04678
 30
0.0
 10
-33.98089
 20
16.04678
 30
0.0
 10
-33.99069
 20
16.09128
 30
0.0
 10
-34.00839
 20
16.12368
 30
0.0
 10
-34.03379
 20
16.14418
 30
0.0
 10
-34.03379
 20
16.14418
 30
0.0
 10
-34.05989
 20
16.16458
 30
0.0
 10
-34.09019
 20
16.17518
 30
0.0
 10
-34.12619
 20
16.17518
 30
0.0
 10
-34.12619
 20
16.17518
 30
0.0
 10
-34.17769
 20
16.17518
 30
0.0
 10
-34.24899
 20
16.15408
 30
0.0
 10
-34.33999
 20
16.11098
 30
0.0
 10
-34.33999
 20
16.11098
 30
0.0
 10
-34.33999
 20
16.11098
 30
0.0
 10
-34.37099
 20
16.17448
 30
0.0
 10
-34.37099
 20
16.17448
 30
0.0
  0
SPLINE
  5
7E
330
1F
100
AcDbEntity
  8
layer 1
 62
   242
370
     9
100
AcDbSpline
210
0.0
220
0.0
230
1.0
 70
    11
 71
     3
 72
    96
 73
    92
 74
     0
 42
0.0000000001
 43
0.0000000001
 12
1.0
 22
0.0
 32
0.0
 13
1.0
 23
0.0
 33
0.0
 40
0.0
 40
0.0
 40
0.0
 40
0.0
 40
0.0416666666666667
 40
0.0416666666666667
 40
0.0416666666666667
 40
0.0416666666666667
 40
0.0833333333333333
 40
0.0833333333333333
 40
0.0833333333333333
 40
0.0833333333333333
 40
0.125
 40
0.125
 40
0.125
 40
0.125
 40
0.1666666666666667
 40
0.1666666666666667
 40
0.1666666666666667
 40
0.1666666666666667
 40
0.2083333333333333
 40
0.2083333333333333
 40
0.2083333333333333
 40
0.2083333333333333
 40
0.25
 40
0.25
 40
0.25
 40
0.25
 40
0.2916666666666667
 40
0.2916666666666667
 40
0.2916666666666667
 40
0.2916666666666667
 40
0.3333333333333333
 40
0.3333333333333333
 40
0.3333333333333333
 40
0.3333333333333333
 40
0.375
 40
0.375
 40
0.375
 40
0.375
 40
0.4166666666666667
 40
0.4166666666666667
 40
0.4166666666666667
 40
0.4166666666666667
 40
0.4583333333333333
 40
0.4583333333333333
 40
0.4583333333333333
 40
0.4583333333333333
 40
0.5
 40
0.5
 40
0.5
 40
0.5
 40
0.5416666666666666
 40
0.5416666666666666
 40
0.5416666666666666
 40
0.5416666666666666
 40
0.5833333333333334
 40
0.5833333333333334
 40
0.5833333333333334
 40
0.5833333333333334
 40
0.625
 40
0.625
 40
0.625
 40
0.625
 40
0.6666666666666666
 40
0.6666666666666666
 40
0.6666666666666666
 40
0.6666666666666666
 40
0.7083333333333334
 40
0.7083333333333334
 40
0.7083333333333334
 40
0.7083333333333334
 40
0.75
 40
0.75
 40
0.75
 40
0.75
 40
0.7916666666666666
 40
0.7916666666666666
 40
0.7916666666666666
 40
0.7916666666666666
 40
0.8333333333333334
 40
0.8333333333333334
 40
0.8333333333333334
 40
0.8333333333333334
 40
0.875
 40
0.875
 40
0.875
 40
0.875
 40
0.9166666666666666
 40
0.9166666666666666
 40
0.9166666666666666
 40
0.9166666666666666
 40
1.0
 40
1.0
 40
1.0
 40
1.0
 10
-30.90809
 20
16.44968
 30
0.0
 10
-30.90809
 20
16.44968
 30
0.0
 10
-31.06969
 20
16.09828
 30
0.0
 10
-31.06969
 20
16.09828
 30
0.0
 10
-31.06969
 20
16.09828
 30
0.0
 10
-31.06969
 20
16.09828
 30
0.0
 10
-31.91639
 20
16.09828
 30
0.0
 10
-31.91639
 20
16.09828
 30
0.0
 10
-31.91639
 20
16.09828
 30
0.0
 10
-31.91639
 20
16.09828
 30
0.0
 10
-32.10189
 20
15.72298
 30
0.0
 10
-32.10189
 20
15.72298
 30
0.0
 10
-32.10189
 20
15.72298
 30
0.0
 10
-31.73219
 20
15.66858
 30
0.0
 10
-31.44149
 20
15.53318
 30
0.0
 10
-31.22849
 20
15.31518
 30
0.0
 10
-31.22849
 20
15.31518
 30
0.0
 10
-31.04569
 20
15.12748
 30
0.0
 10
-30.95469
 20
14.90728
 30
0.0
 10
-30.95469
 20
14.65328
 30
0.0
 10
-30.95469
 20
14.65328
 30
0.0
 10
-30.95469
 20
14.50588
 30
0.0
 10
-30.98429
 20
14.36898
 30
0.0
 10
-31.04429
 20
14.24408
 30
0.0
 10
-31.04429
 20
14.24408
 30
0.0
 10
-31.10429
 20
14.11848
 30
0.0
 10
-31.17979
 20
14.01128
 30
0.0
 10
-31.27079
 20
13.92308
 30
0.0
 10
-31.27079
 20
13.92308
 30
0.0
 10
-31.36109
 20
13.83488
 30
0.0
 10
-31.46269
 20
13.76358
 30
0.0
 10
-31.57419
 20
13.70998
 30
0.0
 10
-31.57419
 20
13.70998
 30
0.0
 10
-31.73219
 20
13.63448
 30
0.0
 10
-31.89449
 20
13.59638
 30
0.0
 10
-32.06099
 20
13.59638
 30
0.0
 10
-32.06099
 20
13.59638
 30
0.0
 10
-32.22889
 20
13.59638
 30
0.0
 10
-32.35099
 20
13.62468
 30
0.0
 10
-32.42789
 20
13.68178
 30
0.0
 10
-32.42789
 20
13.68178
 30
0.0
 10
-32.50409
 20
13.73818
 30
0.0
 10
-32.54219
 20
13.80098
 30
0.0
 10
-32.54219
 20
13.86948
 30
0.0
 10
-32.54219
 20
13.86948
 30
0.0
 10
-32.54219
 20
13.90758
 30
0.0
 10
-32.52669
 20
13.94138
 30
0.0
 10
-32.49489
 20
13.97108
 30
0.0
 10
-32.49489
 20
13.97108
 30
0.0
 10
-32.46319
 20
14.00068
 30
0.0
 10
-32.42299
 20
14.01478
 30
0.0
 10
-32.37499
 20
14.01478
 30
0.0
 10
-32.37499
 20
14.01478
 30
0.0
 10
-32.33969
 20
14.01478
 30
0.0
 10
-32.30799
 20
14.00988
 30
0.0
 10
-32.28109
 20
13.99858
 30
0.0
 10
-32.28109
 20
13.99858
 30
0.0
 10
-32.25429
 20
13.98798
 30
0.0
 10
-32.20919
 20
13.95978
 30
0.0
 10
-32.14429
 20
13.91458
 30
0.0
 10
-32.14429
 20
13.91458
 30
0.0
 10
-32.04129
 20
13.84338
 30
0.0
 10
-31.93609
 20
13.80808
 30
0.0
 10
-31.83029
 20
13.80808
 30
0.0
 10
-31.83029
 20
13.80808
 30
0.0
 10
-31.66939
 20
13.80808
 30
0.0
 10
-31.52759
 20
13.86948
 30
0.0
 10
-31.40559
 20
13.99148
 30
0.0
 10
-31.40559
 20
13.99148
 30
0.0
 10
-31.28419
 20
14.11358
 30
0.0
 10
-31.22279
 20
14.26248
 30
0.0
 10
-31.22279
 20
14.43818
 30
0.0
 10
-31.22279
 20
14.43818
 30
0.0
 10
-31.22279
 20
14.60748
 30
0.0
 10
-31.27719
 20
14.76618
 30
0.0
 10
-31.38579
 20
14.91298
 30
0.0
 10
-31.38579
 20
14.91298
 30
0.0
 10
-31.49519
 20
15.06048
 30
0.0
 10
-31.64469
 20
15.17398
 30
0.0
 10
-31.83669
 20
15.25378
 30
0.0
 10
-31.83669
 20
15.25378
 30
0.0
 10
-31.98619
 20
15.31588
 30
0.0
 10
-32.19079
 20
15.35178
 30
0.0
 10
-32.44979
 20
15.36168
 30
0.0
 10
-32.44979
 20
15.36168
 30
0.0
 10
-32.44979
 20
15.36168
 30
0.0
 10
-31.91209
 20
16.44968
 30
0.0
 10
-31.91209
 20
16.44968
 30
0.0
 10
-31.91209
 20
16.44968
 30
0.0
 10
-31.91209
 20
16.44968
 30
0.0
 10
-30.90809
 20
16.44968
 30
0.0
 10
-30.90809
 20
16.44968
 30
0.0
  0
SPLINE
  5
7F
330
1F
100
AcDbEntity
  8
layer 1
 62
   242
370
     9
100
AcDbSpline
210
0.0
220
0.0
230
1.0
 70
    11
 71
     3
 72
    36
 73
    32
 74
     0
 42
0.0000000001
 43
0.0000000001
 12
1.0
 22
0.0
 32
0.0
 13
1.0
 23
0.0
 33
0.0
 40
0.0
 40
0.0
 40
0.0
 40
0.0
 40
0.1111111111111111
 40
0.1111111111111111
 40
0.1111111111111111
 40
0.1111111111111111
 40
0.2222222222222222
 40
0.2222222222222222
 40
0.2222222222222222
 40
0.2222222222222222
 40
0.3333333333333333
 40
0.3333333333333333
 40
0.3333333333333333
 40
0.3333333333333333
 40
0.4444444444444444
 40
0.4444444444444444
 40
0.4444444444444444
 40
0.4444444444444444
 40
0.5555555555555556
 40
0.5555555555555556
 40
0.5555555555555556
 40
0.5555555555555556
 40
0.6666666666666666
 40
0.6666666666666666
 40
0.6666666666666666
 40
0.6666666666666666
 40
0.7777777777777778
 40
0.7777777777777778
 40
0.7777777777777778
 40
0.7777777777777778
 40
1.0
 40
1.0
 40
1.0
 40
1.0
 10
-30.09949
 20
14.04518
 30
0.0
 10
-30.03529
 20
14.04518
 30
0.0
 10
-29.98099
 20
14.02258
 30
0.0
 10
-29.93659
 20
13.97808
 30
0.0
 10
-29.93659
 20
13.97808
 30
0.0
 10
-29.89279
 20
13.93368
 30
0.0
 10
-29.87089
 20
13.88008
 30
0.0
 10
-29.87089
 20
13.81658
 30
0.0
 10
-29.87089
 20
13.81658
 30
0.0
 10
-29.87089
 20
13.75378
 30
0.0
 10
-29.89349
 20
13.69938
 30
0.0
 10
-29.93799
 20
13.65498
 30
0.0
 10
-29.93799
 20
13.65498
 30
0.0
 10
-29.98239
 20
13.61048
 30
0.0
 10
-30.03599
 20
13.58798
 30
0.0
 10
-30.09949
 20
13.58798
 30
0.0
 10
-30.09949
 20
13.58798
 30
0.0
 10
-30.16229
 20
13.58798
 30
0.0
 10
-30.21669
 20
13.61048
 30
0.0
 10
-30.26109
 20
13.65498
 30
0.0
 10
-30.26109
 20
13.65498
 30
0.0
 10
-30.30559
 20
13.69938
 30
0.0
 10
-30.32809
 20
13.75378
 30
0.0
 10
-30.32809
 20
13.81658
 30
0.0
 10
-30.32809
 20
13.81658
 30
0.0
 10
-30.32809
 20
13.88078
 30
0.0
 10
-30.30559
 20
13.93508
 30
0.0
 10
-30.26109
 20
13.97948
 30
0.0
 10
-30.26109
 20
13.97948
 30
0.0
 10
-30.21669
 20
14.02328
 30
0.0
 10
-30.16229
 20
14.04518
 30
0.0
 10
-30.09949
 20
14.04518
 30
0.0
  0
SPLINE
  5
80
330
1F
100
AcDbEntity
  8
layer 1
 62
   242
370
     9
100
AcDbSpline
210
0.0
220
0.0
230
1.0
 70
    11
 71
     3
 72
    44
 73
    40
 74
     0
 42
0.0000000001
 43
0.0000000001
 12
1.0
 22
0.0
 32
0.0
 13
1.0
 23
0.0
 33
0.0
 40
0.0
 40
0.0
 40
0.0
 40
0.0
 40
0.0909090909090909
 40
0.0909090909090909
 40
0.0909090909090909
 40
0.0909090909090909
 40
0.1818181818181818
 40
0.1818181818181818
 40
0.1818181818181818
 40
0.1818181818181818
 40
0.2727272727272727
 40
0.2727272727272727
 40
0.2727272727272727
 40
0.2727272727272727
 40
0.3636363636363636
 40
0.3636363636363636
 40
0.3636363636363636
 40
0.3636363636363636
 40
0.4545454545454545
 40
0.4545454545454545
 40
0.4545454545454545
 40
0.4545454545454545
 40
0.5454545454545454
 40
0.5454545454545454
 40
0.5454545454545454
 40
0.5454545454545454
 40
0.6363636363636364
 40
0.6363636363636364
 40
0.6363636363636364
 40
0.6363636363636364
 40
0.7272727272727273
 40
0.7272727272727273
 40
0.7272727272727273
 40
0.7272727272727273
 40
0.8181818181818182
 40
0.8181818181818182
 40
0.8181818181818182
 40
0.8181818181818182
 40
1.0
 40
1.0
 40
1.0
 40
1.0
 10
-29.41799
 20
15.03008
 30
0.0
 10
-29.41799
 20
15.34968
 30
0.0
 10
-29.36999
 20
15.62418
 30
0.0
 10
-29.27339
 20
15.85488
 30
0.0
 10
-29.27339
 20
15.85488
 30
0.0
 10
-29.17669
 20
16.08558
 30
0.0
 10
-29.04899
 20
16.25778
 30
0.0
 10
-28.88879
 20
16.37068
 30
0.0
 10
-28.88879
 20
16.37068
 30
0.0
 10
-28.76539
 20
16.46028
 30
0.0
 10
-28.63699
 20
16.50468
 30
0.0
 10
-28.50499
 20
16.50468
 30
0.0
 10
-28.50499
 20
16.50468
 30
0.0
 10
-28.28979
 20
16.50468
 30
0.0
 10
-28.09719
 20
16.39538
 30
0.0
 10
-27.92649
 20
16.17658
 30
0.0
 10
-27.92649
 20
16.17658
 30
0.0
 10
-27.71269
 20
15.90498
 30
0.0
 10
-27.60609
 20
15.53738
 30
0.0
 10
-27.60609
 20
15.07308
 30
0.0
 10
-27.60609
 20
15.07308
 30
0.0
 10
-27.60609
 20
14.74858
 30
0.0
 10
-27.65269
 20
14.47198
 30
0.0
 10
-27.74659
 20
14.24478
 30
0.0
 10
-27.74659
 20
14.24478
 30
0.0
 10
-27.84039
 20
14.01758
 30
0.0
 10
-27.95959
 20
13.85328
 30
0.0
 10
-28.10499
 20
13.75018
 30
0.0
 10
-28.10499
 20
13.75018
 30
0.0
 10
-28.25029
 20
13.64788
 30
0.0
 10
-28.39069
 20
13.59638
 30
0.0
 10
-28.52549
 20
13.59638
 30
0.0
 10
-28.52549
 20
13.59638
 30
0.0
 10
-28.79289
 20
13.59638
 30
0.0
 10
-29.01509
 20
13.75378
 30
0.0
 10
-29.19289
 20
14.06918
 30
0.0
 10
-29.19289
 20
14.06918
 30
0.0
 10
-29.34319
 20
14.33508
 30
0.0
 10
-29.41799
 20
14.65548
 30
0.0
 10
-29.41799
 20
15.03008
 30
0.0
  0
SPLINE
  5
81
330
1F
100
AcDbEntity
  8
layer 1
 62
   242
370
     9
100
AcDbSpline
210
0.0
220
0.0
230
1.0
 70
    11
 71
     3
 72
    48
 73
    44
 74
     0
 42
0.0000000001
 43
0.0000000001
 12
1.0
 22
0.0
 32
0.0
 13
1.0
 23
0.0
 33
0.0
 40
0.0
 40
0.0
 40
0.0
 40
0.0
 40
0.0833333333333333
 40
0.0833333333333333
 40
0.0833333333333333
 40
0.0833333333333333
 40
0.1666666666666667
 40
0.1666666666666667
 40
0.1666666666666667
 40
0.1666666666666667
 40
0.25
 40
0.25
 40
0.25
 40
0.25
 40
0.3333333333333333
 40
0.3333333333333333
 40
0.3333333333333333
 40
0.3333333333333333
 40
0.4166666666666667
 40
0.4166666666666667
 40
0.4166666666666667
 40
0.4166666666666667
 40
0.5
 40
0.5
 40
0.5
 40
0.5
 40
0.5833333333333334
 40
0.5833333333333334
 40
0.5833333333333334
 40
0.5833333333333334
 40
0.6666666666666666
 40
0.6666666666666666
 40
0.6666666666666666
 40
0.6666666666666666
 40
0.75
 40
0.75
 40
0.75
 40
0.75
 40
0.8333333333333334
 40
0.8333333333333334
 40
0.8333333333333334
 40
0.8333333333333334
 40
1.0
 40
1.0
 40
1.0
 40
1.0
 10
-29.01159
 20
14.97928
 30
0.0
 10
-29.01159
 20
14.59408
 30
0.0
 10
-28.96429
 20
14.27938
 30
0.0
 10
-28.86979
 20
14.03528
 30
0.0
 10
-28.86979
 20
14.03528
 30
0.0
 10
-28.79149
 20
13.82998
 30
0.0
 10
-28.67439
 20
13.72768
 30
0.0
 10
-28.51909
 20
13.72768
 30
0.0
 10
-28.51909
 20
13.72768
 30
0.0
 10
-28.44499
 20
13.72768
 30
0.0
 10
-28.36809
 20
13.76078
 30
0.0
 10
-28.28839
 20
13.82788
 30
0.0
 10
-28.28839
 20
13.82788
 30
0.0
 10
-28.20869
 20
13.89488
 30
0.0
 10
-28.14869
 20
14.00638
 30
0.0
 10
-28.10709
 20
14.16368
 30
0.0
 10
-28.10709
 20
14.16368
 30
0.0
 10
-28.04429
 20
14.40008
 30
0.0
 10
-28.01249
 20
14.73448
 30
0.0
 10
-28.01249
 20
15.16488
 30
0.0
 10
-28.01249
 20
15.16488
 30
0.0
 10
-28.01249
 20
15.48448
 30
0.0
 10
-28.04569
 20
15.75118
 30
0.0
 10
-28.11129
 20
15.96428
 30
0.0
 10
-28.11129
 20
15.96428
 30
0.0
 10
-28.16069
 20
16.12298
 30
0.0
 10
-28.22489
 20
16.23518
 30
0.0
 10
-28.30319
 20
16.30078
 30
0.0
 10
-28.30319
 20
16.30078
 30
0.0
 10
-28.35899
 20
16.34668
 30
0.0
 10
-28.42739
 20
16.36918
 30
0.0
 10
-28.50709
 20
16.36918
 30
0.0
 10
-28.50709
 20
16.36918
 30
0.0
 10
-28.60029
 20
16.36918
 30
0.0
 10
-28.68349
 20
16.32688
 30
0.0
 10
-28.75619
 20
16.24298
 30
0.0
 10
-28.75619
 20
16.24298
 30
0.0
 10
-28.85499
 20
16.12868
 30
0.0
 10
-28.92269
 20
15.94938
 30
0.0
 10
-28.95799
 20
15.70388
 30
0.0
 10
-28.95799
 20
15.70388
 30
0.0
 10
-28.99399
 20
15.45908
 30
0.0
 10
-29.01159
 20
15.21778
 30
0.0
 10
-29.01159
 20
14.97928
 30
0.0
  0
SPLINE
  5
82
330
1F
100
AcDbEntity
  8
layer 1
 62
   242
370
     9
100
AcDbSpline
210
0.0
220
0.0
230
1.0
 70
    11
 71
     3
 72
    64
 73
    60
 74
     0
 42
0.0000000001
 43
0.0000000001
 12
1.0
 22
0.0
 32
0.0
 13
1.0
 23
0.0
 33
0.0
 40
0.0
 40
0.0
 40
0.0
 40
0.0
 40
0.0625
 40
0.0625
 40
0.0625
 40
0.0625
 40
0.125
 40
0.125
 40
0.125
 40
0.125
 40
0.1875
 40
0.1875
 40
0.1875
 40
0.1875
 40
0.25
 40
0.25
 40
0.25
 40
0.25
 40
0.3125
 40
0.3125
 40
0.3125
 40
0.3125
 40
0.375
 40
0.375
 40
0.375
 40
0.375
 40
0.4375
 40
0.4375
 40
0.4375
 40
0.4375
 40
0.5
 40
0.5
 40
0.5
 40
0.5
 40
0.5625
 40
0.5625
 40
0.5625
 40
0.5625
 40
0.625
 40
0.625
 40
0.625
 40
0.625
 40
0.6875
 40
0.6875
 40
0.6875
 40
0.6875
 40
0.75
 40
0.75
 40
0.75
 40
0.75
 40
0.8125
 40
0.8125
 40
0.8125
 40
0.8125
 40
0.875
 40
0.875
 40
0.875
 40
0.875
 40
1.0
 40
1.0
 40
1.0
 40
1.0
 10
41.69841
 20
72.46468
 30
0.0
 10
41.69841
 20
72.46468
 30
0.0
 10
41.62221
 20
72.46468
 30
0.0
 10
41.62221
 20
72.46468
 30
0.0
 10
41.62221
 20
72.46468
 30
0.0
 10
41.61931
 20
72.64318
 30
0.0
 10
41.57771
 20
72.80968
 30
0.0
 10
41.49661
 20
72.96348
 30
0.0
 10
41.49661
 20
72.96348
 30
0.0
 10
41.41541
 20
73.11798
 30
0.0
 10
41.27361
 20
73.26618
 30
0.0
 10
41.07181
 20
73.41008
 30
0.0
 10
41.07181
 20
73.41008
 30
0.0
 10
40.86931
 20
73.55398
 30
0.0
 10
40.64781
 20
73.65348
 30
0.0
 10
40.40791
 20
73.70998
 30
0.0
 10
40.40791
 20
73.70998
 30
0.0
 10
40.54551
 20
73.49478
 30
0.0
 10
40.61461
 20
73.29928
 30
0.0
 10
40.61461
 20
73.12508
 30
0.0
 10
40.61461
 20
73.12508
 30
0.0
 10
40.61461
 20
72.92818
 30
0.0
 10
40.53841
 20
72.76028
 30
0.0
 10
40.38671
 20
72.61988
 30
0.0
 10
40.38671
 20
72.61988
 30
0.0
 10
40.23431
 20
72.47948
 30
0.0
 10
40.03261
 20
72.40958
 30
0.0
 10
39.78071
 20
72.40958
 30
0.0
 10
39.78071
 20
72.40958
 30
0.0
 10
39.53591
 20
72.40958
 30
0.0
 10
39.31781
 20
72.48018
 30
0.0
 10
39.12591
 20
72.62058
 30
0.0
 10
39.12591
 20
72.62058
 30
0.0
 10
38.89381
 20
72.78918
 30
0.0
 10
38.77741
 20
73.01078
 30
0.0
 10
38.77741
 20
73.28308
 30
0.0
 10
38.77741
 20
73.28308
 30
0.0
 10
38.77741
 20
73.51308
 30
0.0
 10
38.87261
 20
73.70998
 30
0.0
 10
39.06311
 20
73.87358
 30
0.0
 10
39.06311
 20
73.87358
 30
0.0
 10
39.29881
 20
74.07468
 30
0.0
 10
39.58951
 20
74.17488
 30
0.0
 10
39.93591
 20
74.17488
 30
0.0
 10
39.93591
 20
74.17488
 30
0.0
 10
40.24781
 20
74.17488
 30
0.0
 10
40.53841
 20
74.09868
 30
0.0
 10
40.80801
 20
73.94558
 30
0.0
 10
40.80801
 20
73.94558
 30
0.0
 10
41.07751
 20
73.79248
 30
0.0
 10
41.30111
 20
73.58008
 30
0.0
 10
41.47891
 20
73.30708
 30
0.0
 10
41.47891
 20
73.30708
 30
0.0
 10
41.62501
 20
73.08548
 30
0.0
 10
41.69841
 20
72.84428
 30
0.0
 10
41.69841
 20
72.58248
 30
0.0
 10
41.69841
 20
72.58248
 30
0.0
 10
41.69841
 20
72.58248
 30
0.0
 10
41.69841
 20
72.46468
 30
0.0
 10
41.69841
 20
72.46468
 30
0.0
  0
SPLINE
  5
83
330
1F
100
AcDbEntity
  8
layer 1
 62
   242
370
     9
100
AcDbSpline
210
0.0
220
0.0
230
1.0
 70
    11
 71
     3
 72
    44
 73
    40
 74
     0
 42
0.0000000001
 43
0.0000000001
 12
1.0
 22
0.0
 32
0.0
 13
1.0
 23
0.0
 33
0.0
 40
0.0
 40
0.0
 40
0.0
 40
0.0
 40
0.0909090909090909
 40
0.0909090909090909
 40
0.0909090909090909
 40
0.0909090909090909
 40
0.1818181818181818
 40
0.1818181818181818
 40
0.1818181818181818
 40
0.1818181818181818
 40
0.2727272727272727
 40
0.2727272727272727
 40
0.2727272727272727
 40
0.2727272727272727
 40
0.3636363636363636
 40
0.3636363636363636
 40
0.3636363636363636
 40
0.3636363636363636
 40
0.4545454545454545
 40
0.4545454545454545
 40
0.4545454545454545
 40
0.4545454545454545
 40
0.5454545454545454
 40
0.5454545454545454
 40
0.5454545454545454
 40
0.5454545454545454
 40
0.6363636363636364
 40
0.6363636363636364
 40
0.6363636363636364
 40
0.6363636363636364
 40
0.7272727272727273
 40
0.7272727272727273
 40
0.7272727272727273
 40
0.7272727272727273
 40
0.8181818181818182
 40
0.8181818181818182
 40
0.8181818181818182
 40
0.8181818181818182
 40
1.0
 40
1.0
 40
1.0
 40
1.0
 10
40.25481
 20
73.74308
 30
0.0
 10
40.07631
 20
73.76848
 30
0.0
 10
39.93311
 20
73.78118
 30
0.0
 10
39.82511
 20
73.78118
 30
0.0
 10
39.82511
 20
73.78118
 30
0.0
 10
39.69181
 20
73.78118
 30
0.0
 10
39.54781
 20
73.75858
 30
0.0
 10
39.39261
 20
73.71348
 30
0.0
 10
39.39261
 20
73.71348
 30
0.0
 10
39.23811
 20
73.66758
 30
0.0
 10
39.11961
 20
73.60338
 30
0.0
 10
39.03701
 20
73.52088
 30
0.0
 10
39.03701
 20
73.52088
 30
0.0
 10
38.95451
 20
73.43758
 30
0.0
 10
38.91291
 20
73.34308
 30
0.0
 10
38.91291
 20
73.23718
 30
0.0
 10
38.91291
 20
73.23718
 30
0.0
 10
38.91291
 20
73.11518
 30
0.0
 10
38.96791
 20
73.00788
 30
0.0
 10
39.07801
 20
72.91618
 30
0.0
 10
39.07801
 20
72.91618
 30
0.0
 10
39.18801
 20
72.82378
 30
0.0
 10
39.35171
 20
72.77788
 30
0.0
 10
39.56971
 20
72.77788
 30
0.0
 10
39.56971
 20
72.77788
 30
0.0
 10
39.85971
 20
72.77788
 30
0.0
 10
40.08691
 20
72.83928
 30
0.0
 10
40.25061
 20
72.96138
 30
0.0
 10
40.25061
 20
72.96138
 30
0.0
 10
40.36911
 20
73.05028
 30
0.0
 10
40.42841
 20
73.16028
 30
0.0
 10
40.42841
 20
73.29018
 30
0.0
 10
40.42841
 20
73.29018
 30
0.0
 10
40.42841
 20
73.35368
 30
0.0
 10
40.41361
 20
73.42838
 30
0.0
 10
40.38321
 20
73.51448
 30
0.0
 10
40.38321
 20
73.51448
 30
0.0
 10
40.35291
 20
73.60128
 30
0.0
 10
40.30981
 20
73.67748
 30
0.0
 10
40.25481
 20
73.74308
 30
0.0
  0
SPLINE
  5
84
330
1F
100
AcDbEntity
  8
layer 1
 62
   242
370
     9
100
AcDbSpline
210
0.0
220
0.0
230
1.0
 70
    11
 71
     3
 72
    44
 73
    40
 74
     0
 42
0.0000000001
 43
0.0000000001
 12
1.0
 22
0.0
 32
0.0
 13
1.0
 23
0.0
 33
0.0
 40
0.0
 40
0.0
 40
0.0
 40
0.0
 40
0.0909090909090909
 40
0.0909090909090909
 40
0.0909090909090909
 40
0.0909090909090909
 40
0.1818181818181818
 40
0.1818181818181818
 40
0.1818181818181818
 40
0.1818181818181818
 40
0.2727272727272727
 40
0.2727272727272727
 40
0.2727272727272727
 40
0.2727272727272727
 40
0.3636363636363636
 40
0.3636363636363636
 40
0.3636363636363636
 40
0.3636363636363636
 40
0.4545454545454545
 40
0.4545454545454545
 40
0.4545454545454545
 40
0.4545454545454545
 40
0.5454545454545454
 40
0.5454545454545454
 40
0.5454545454545454
 40
0.5454545454545454
 40
0.6363636363636364
 40
0.6363636363636364
 40
0.6363636363636364
 40
0.6363636363636364
 40
0.7272727272727273
 40
0.7272727272727273
 40
0.7272727272727273
 40
0.7272727272727273
 40
0.8181818181818182
 40
0.8181818181818182
 40
0.8181818181818182
 40
0.8181818181818182
 40
1.0
 40
1.0
 40
1.0
 40
1.0
 10
40.25201
 20
74.50938
 30
0.0
 10
39.93241
 20
74.50938
 30
0.0
 10
39.65791
 20
74.55738
 30
0.0
 10
39.42721
 20
74.65398
 30
0.0
 10
39.42721
 20
74.65398
 30
0.0
 10
39.19651
 20
74.75068
 30
0.0
 10
39.02431
 20
74.87838
 30
0.0
 10
38.91141
 20
75.03858
 30
0.0
 10
38.91141
 20
75.03858
 30
0.0
 10
38.82181
 20
75.16198
 30
0.0
 10
38.77741
 20
75.29038
 30
0.0
 10
38.77741
 20
75.42238
 30
0.0
 10
38.77741
 20
75.42238
 30
0.0
 10
38.77741
 20
75.63758
 30
0.0
 10
38.88671
 20
75.83018
 30
0.0
 10
39.10551
 20
76.00088
 30
0.0
 10
39.10551
 20
76.00088
 30
0.0
 10
39.37711
 20
76.21468
 30
0.0
 10
39.74471
 20
76.32128
 30
0.0
 10
40.20901
 20
76.32128
 30
0.0
 10
40.20901
 20
76.32128
 30
0.0
 10
40.53351
 20
76.32128
 30
0.0
 10
40.81011
 20
76.27468
 30
0.0
 10
41.03731
 20
76.18078
 30
0.0
 10
41.03731
 20
76.18078
 30
0.0
 10
41.26451
 20
76.08698
 30
0.0
 10
41.42881
 20
75.96778
 30
0.0
 10
41.53191
 20
75.82238
 30
0.0
 10
41.53191
 20
75.82238
 30
0.0
 10
41.63421
 20
75.67708
 30
0.0
 10
41.68571
 20
75.53668
 30
0.0
 10
41.68571
 20
75.40188
 30
0.0
 10
41.68571
 20
75.40188
 30
0.0
 10
41.68571
 20
75.13448
 30
0.0
 10
41.52831
 20
74.91228
 30
0.0
 10
41.21291
 20
74.73448
 30
0.0
 10
41.21291
 20
74.73448
 30
0.0
 10
40.94701
 20
74.58418
 30
0.0
 10
40.62661
 20
74.50938
 30
0.0
 10
40.25201
 20
74.50938
 30
0.0
  0
SPLINE
  5
85
330
1F
100
AcDbEntity
  8
layer 1
 62
   242
370
     9
100
AcDbSpline
210
0.0
220
0.0
230
1.0
 70
    11
 71
     3
 72
    48
 73
    44
 74
     0
 42
0.0000000001
 43
0.0000000001
 12
1.0
 22
0.0
 32
0.0
 13
1.0
 23
0.0
 33
0.0
 40
0.0
 40
0.0
 40
0.0
 40
0.0
 40
0.0833333333333333
 40
0.0833333333333333
 40
0.0833333333333333
 40
0.0833333333333333
 40
0.1666666666666667
 40
0.1666666666666667
 40
0.1666666666666667
 40
0.1666666666666667
 40
0.25
 40
0.25
 40
0.25
 40
0.25
 40
0.3333333333333333
 40
0.3333333333333333
 40
0.3333333333333333
 40
0.3333333333333333
 40
0.4166666666666667
 40
0.4166666666666667
 40
0.4166666666666667
 40
0.4166666666666667
 40
0.5
 40
0.5
 40
0.5
 40
0.5
 40
0.5833333333333334
 40
0.5833333333333334
 40
0.5833333333333334
 40
0.5833333333333334
 40
0.6666666666666666
 40
0.6666666666666666
 40
0.6666666666666666
 40
0.6666666666666666
 40
0.75
 40
0.75
 40
0.75
 40
0.75
 40
0.8333333333333334
 40
0.8333333333333334
 40
0.8333333333333334
 40
0.8333333333333334
 40
1.0
 40
1.0
 40
1.0
 40
1.0
 10
40.30281
 20
74.91578
 30
0.0
 10
40.68801
 20
74.91578
 30
0.0
 10
41.00271
 20
74.96308
 30
0.0
 10
41.24681
 20
75.05758
 30
0.0
 10
41.24681
 20
75.05758
 30
0.0
 10
41.45211
 20
75.13588
 30
0.0
 10
41.55441
 20
75.25298
 30
0.0
 10
41.55441
 20
75.40828
 30
0.0
 10
41.55441
 20
75.40828
 30
0.0
 10
41.55441
 20
75.48238
 30
0.0
 10
41.52131
 20
75.55928
 30
0.0
 10
41.45421
 20
75.63898
 30
0.0
 10
41.45421
 20
75.63898
 30
0.0
 10
41.38721
 20
75.71868
 30
0.0
 10
41.27571
 20
75.77868
 30
0.0
 10
41.11841
 20
75.82028
 30
0.0
 10
41.11841
 20
75.82028
 30
0.0
 10
40.88201
 20
75.88308
 30
0.0
 10
40.54761
 20
75.91488
 30
0.0
 10
40.11721
 20
75.91488
 30
0.0
 10
40.11721
 20
75.91488
 30
0.0
 10
39.79761
 20
75.91488
 30
0.0
 10
39.53091
 20
75.88168
 30
0.0
 10
39.31781
 20
75.81608
 30
0.0
 10
39.31781
 20
75.81608
 30
0.0
 10
39.15911
 20
75.76668
 30
0.0
 10
39.04691
 20
75.70248
 30
0.0
 10
38.98131
 20
75.62418
 30
0.0
 10
38.98131
 20
75.62418
 30
0.0
 10
38.93541
 20
75.56838
 30
0.0
 10
38.91291
 20
75.49998
 30
0.0
 10
38.91291
 20
75.42028
 30
0.0
 10
38.91291
 20
75.42028
 30
0.0
 10
38.91291
 20
75.32708
 30
0.0
 10
38.95521
 20
75.24388
 30
0.0
 10
39.03911
 20
75.17118
 30
0.0
 10
39.03911
 20
75.17118
 30
0.0
 10
39.15341
 20
75.07238
 30
0.0
 10
39.33271
 20
75.00468
 30
0.0
 10
39.57821
 20
74.96938
 30
0.0
 10
39.57821
 20
74.96938
 30
0.0
 10
39.82301
 20
74.93338
 30
0.0
 10
40.06431
 20
74.91578
 30
0.0
 10
40.30281
 20
74.91578
 30
0.0
  0
SPLINE
  5
86
330
1F
100
AcDbEntity
  8
layer 1
 62
   242
370
     9
100
AcDbSpline
210
0.0
220
0.0
230
1.0
 70
    11
 71
     3
 72
    36
 73
    32
 74
     0
 42
0.0000000001
 43
0.0000000001
 12
1.0
 22
0.0
 32
0.0
 13
1.0
 23
0.0
 33
0.0
 40
0.0
 40
0.0
 40
0.0
 40
0.0
 40
0.1111111111111111
 40
0.1111111111111111
 40
0.1111111111111111
 40
0.1111111111111111
 40
0.2222222222222222
 40
0.2222222222222222
 40
0.2222222222222222
 40
0.2222222222222222
 40
0.3333333333333333
 40
0.3333333333333333
 40
0.3333333333333333
 40
0.3333333333333333
 40
0.4444444444444444
 40
0.4444444444444444
 40
0.4444444444444444
 40
0.4444444444444444
 40
0.5555555555555556
 40
0.5555555555555556
 40
0.5555555555555556
 40
0.5555555555555556
 40
0.6666666666666666
 40
0.6666666666666666
 40
0.6666666666666666
 40
0.6666666666666666
 40
0.7777777777777778
 40
0.7777777777777778
 40
0.7777777777777778
 40
0.7777777777777778
 40
1.0
 40
1.0
 40
1.0
 40
1.0
 10
41.23691
 20
77.00288
 30
0.0
 10
41.23691
 20
77.06708
 30
0.0
 10
41.25951
 20
77.12138
 30
0.0
 10
41.30401
 20
77.16578
 30
0.0
 10
41.30401
 20
77.16578
 30
0.0
 10
41.34841
 20
77.20958
 30
0.0
 10
41.40201
 20
77.23148
 30
0.0
 10
41.46551
 20
77.23148
 30
0.0
 10
41.46551
 20
77.23148
 30
0.0
 10
41.52831
 20
77.23148
 30
0.0
 10
41.58271
 20
77.20888
 30
0.0
 10
41.62711
 20
77.16438
 30
0.0
 10
41.62711
 20
77.16438
 30
0.0
 10
41.67161
 20
77.11998
 30
0.0
 10
41.69411
 20
77.06638
 30
0.0
 10
41.69411
 20
77.00288
 30
0.0
 10
41.69411
 20
77.00288
 30
0.0
 10
41.69411
 20
76.94008
 30
0.0
 10
41.67161
 20
76.88568
 30
0.0
 10
41.62711
 20
76.84128
 30
0.0
 10
41.62711
 20
76.84128
 30
0.0
 10
41.58271
 20
76.79678
 30
0.0
 10
41.52831
 20
76.77428
 30
0.0
 10
41.46551
 20
76.77428
 30
0.0
 10
41.46551
 20
76.77428
 30
0.0
 10
41.40131
 20
76.77428
 30
0.0
 10
41.34701
 20
76.79678
 30
0.0
 10
41.30261
 20
76.84128
 30
0.0
 10
41.30261
 20
76.84128
 30
0.0
 10
41.25881
 20
76.88568
 30
0.0
 10
41.23691
 20
76.94008
 30
0.0
 10
41.23691
 20
77.00288
 30
0.0
  0
SPLINE
  5
87
330
1F
100
AcDbEntity
  8
layer 1
 62
   242
370
     9
100
AcDbSpline
210
0.0
220
0.0
230
1.0
 70
    11
 71
     3
 72
    44
 73
    40
 74
     0
 42
0.0000000001
 43
0.0000000001
 12
1.0
 22
0.0
 32
0.0
 13
1.0
 23
0.0
 33
0.0
 40
0.0
 40
0.0
 40
0.0
 40
0.0
 40
0.0909090909090909
 40
0.0909090909090909
 40
0.0909090909090909
 40
0.0909090909090909
 40
0.1818181818181818
 40
0.1818181818181818
 40
0.1818181818181818
 40
0.1818181818181818
 40
0.2727272727272727
 40
0.2727272727272727
 40
0.2727272727272727
 40
0.2727272727272727
 40
0.3636363636363636
 40
0.3636363636363636
 40
0.3636363636363636
 40
0.3636363636363636
 40
0.4545454545454545
 40
0.4545454545454545
 40
0.4545454545454545
 40
0.4545454545454545
 40
0.5454545454545454
 40
0.5454545454545454
 40
0.5454545454545454
 40
0.5454545454545454
 40
0.6363636363636364
 40
0.6363636363636364
 40
0.6363636363636364
 40
0.6363636363636364
 40
0.7272727272727273
 40
0.7272727272727273
 40
0.7272727272727273
 40
0.7272727272727273
 40
0.8181818181818182
 40
0.8181818181818182
 40
0.8181818181818182
 40
0.8181818181818182
 40
1.0
 40
1.0
 40
1.0
 40
1.0
 10
40.25201
 20
77.68438
 30
0.0
 10
39.93241
 20
77.68438
 30
0.0
 10
39.65791
 20
77.73238
 30
0.0
 10
39.42721
 20
77.82898
 30
0.0
 10
39.42721
 20
77.82898
 30
0.0
 10
39.19651
 20
77.92568
 30
0.0
 10
39.02431
 20
78.05338
 30
0.0
 10
38.91141
 20
78.21358
 30
0.0
 10
38.91141
 20
78.21358
 30
0.0
 10
38.82181
 20
78.33698
 30
0.0
 10
38.77741
 20
78.46538
 30
0.0
 10
38.77741
 20
78.59738
 30
0.0
 10
38.77741
 20
78.59738
 30
0.0
 10
38.77741
 20
78.81258
 30
0.0
 10
38.88671
 20
79.00518
 30
0.0
 10
39.10551
 20
79.17588
 30
0.0
 10
39.10551
 20
79.17588
 30
0.0
 10
39.37711
 20
79.38968
 30
0.0
 10
39.74471
 20
79.49628
 30
0.0
 10
40.20901
 20
79.49628
 30
0.0
 10
40.20901
 20
79.49628
 30
0.0
 10
40.53351
 20
79.49628
 30
0.0
 10
40.81011
 20
79.44968
 30
0.0
 10
41.03731
 20
79.35578
 30
0.0
 10
41.03731
 20
79.35578
 30
0.0
 10
41.26451
 20
79.26198
 30
0.0
 10
41.42881
 20
79.14278
 30
0.0
 10
41.53191
 20
78.99738
 30
0.0
 10
41.53191
 20
78.99738
 30
0.0
 10
41.63421
 20
78.85208
 30
0.0
 10
41.68571
 20
78.71168
 30
0.0
 10
41.68571
 20
78.57688
 30
0.0
 10
41.68571
 20
78.57688
 30
0.0
 10
41.68571
 20
78.30948
 30
0.0
 10
41.52831
 20
78.08728
 30
0.0
 10
41.21291
 20
77.90948
 30
0.0
 10
41.21291
 20
77.90948
 30
0.0
 10
40.94701
 20
77.75918
 30
0.0
 10
40.62661
 20
77.68438
 30
0.0
 10
40.25201
 20
77.68438
 30
0.0
  0
SPLINE
  5
88
330
1F
100
AcDbEntity
  8
layer 1
 62
   242
370
     9
100
AcDbSpline
210
0.0
220
0.0
230
1.0
 70
    11
 71
     3
 72
    48
 73
    44
 74
     0
 42
0.0000000001
 43
0.0000000001
 12
1.0
 22
0.0
 32
0.0
 13
1.0
 23
0.0
 33
0.0
 40
0.0
 40
0.0
 40
0.0
 40
0.0
 40
0.0833333333333333
 40
0.0833333333333333
 40
0.0833333333333333
 40
0.0833333333333333
 40
0.1666666666666667
 40
0.1666666666666667
 40
0.1666666666666667
 40
0.1666666666666667
 40
0.25
 40
0.25
 40
0.25
 40
0.25
 40
0.3333333333333333
 40
0.3333333333333333
 40
0.3333333333333333
 40
0.3333333333333333
 40
0.4166666666666667
 40
0.4166666666666667
 40
0.4166666666666667
 40
0.4166666666666667
 40
0.5
 40
0.5
 40
0.5
 40
0.5
 40
0.5833333333333334
 40
0.5833333333333334
 40
0.5833333333333334
 40
0.5833333333333334
 40
0.6666666666666666
 40
0.6666666666666666
 40
0.6666666666666666
 40
0.6666666666666666
 40
0.75
 40
0.75
 40
0.75
 40
0.75
 40
0.8333333333333334
 40
0.8333333333333334
 40
0.8333333333333334
 40
0.8333333333333334
 40
1.0
 40
1.0
 40
1.0
 40
1.0
 10
40.30281
 20
78.09078
 30
0.0
 10
40.68801
 20
78.09078
 30
0.0
 10
41.00271
 20
78.13808
 30
0.0
 10
41.24681
 20
78.23258
 30
0.0
 10
41.24681
 20
78.23258
 30
0.0
 10
41.45211
 20
78.31088
 30
0.0
 10
41.55441
 20
78.42798
 30
0.0
 10
41.55441
 20
78.58328
 30
0.0
 10
41.55441
 20
78.58328
 30
0.0
 10
41.55441
 20
78.65738
 30
0.0
 10
41.52131
 20
78.73428
 30
0.0
 10
41.45421
 20
78.81398
 30
0.0
 10
41.45421
 20
78.81398
 30
0.0
 10
41.38721
 20
78.89368
 30
0.0
 10
41.27571
 20
78.95368
 30
0.0
 10
41.11841
 20
78.99528
 30
0.0
 10
41.11841
 20
78.99528
 30
0.0
 10
40.88201
 20
79.05808
 30
0.0
 10
40.54761
 20
79.08988
 30
0.0
 10
40.11721
 20
79.08988
 30
0.0
 10
40.11721
 20
79.08988
 30
0.0
 10
39.79761
 20
79.08988
 30
0.0
 10
39.53091
 20
79.05668
 30
0.0
 10
39.31781
 20
78.99108
 30
0.0
 10
39.31781
 20
78.99108
 30
0.0
 10
39.15911
 20
78.94168
 30
0.0
 10
39.04691
 20
78.87748
 30
0.0
 10
38.98131
 20
78.79918
 30
0.0
 10
38.98131
 20
78.79918
 30
0.0
 10
38.93541
 20
78.74338
 30
0.0
 10
38.91291
 20
78.67498
 30
0.0
 10
38.91291
 20
78.59528
 30
0.0
 10
38.91291
 20
78.59528
 30
0.0
 10
38.91291
 20
78.50208
 30
0.0
 10
38.95521
 20
78.41888
 30
0.0
 10
39.03911
 20
78.34618
 30
0.0
 10
39.03911
 20
78.34618
 30
0.0
 10
39.15341
 20
78.24738
 30
0.0
 10
39.33271
 20
78.17968
 30
0.0
 10
39.57821
 20
78.14438
 30
0.0
 10
39.57821
 20
78.14438
 30
0.0
 10
39.82301
 20
78.10838
 30
0.0
 10
40.06431
 20
78.09078
 30
0.0
 10
40.30281
 20
78.09078
 30
0.0
  0
SPLINE
  5
89
330
1F
100
AcDbEntity
  8
layer 1
 62
   242
370
     9
100
AcDbSpline
210
0.0
220
0.0
230
1.0
 70
    24
 71
     3
 72
     8
 73
     4
 74
     0
 42
0.0000000001
 43
0.0000000001
 12
1.0
 22
0.0
 32
0.0
 13
1.0
 23
0.0
 33
0.0
 40
0.0
 40
0.0
 40
0.0
 40
0.0
 40
1.0
 40
1.0
 40
1.0
 40
1.0
 10
17.97341
 20
33.32818
 30
0.0
 10
17.97341
 20
33.32818
 30
0.0
 10
48.17851
 20
33.32818
 30
0.0
 10
48.17851
 20
33.32818
 30
0.0
  0
SPLINE
  5
8A
330
1F
100
AcDbEntity
  8
layer 1
 62
   242
370
     9
100
AcDbSpline
210
0.0
220
0.0
230
1.0
 70
    24
 71
     3
 72
     8
 73
     4
 74
     0
 42
0.0000000001
 43
0.0000000001
 12
1.0
 22
0.0
 32
0.0
 13
1.0
 23
0.0
 33
0.0
 40
0.0
 40
0.0
 40
0.0
 40
0.0
 40
1.0
 40
1.0
 40
1.0
 40
1.0
 10
17.97341
 20
123.32818
 30
0.0
 10
17.97341
 20
123.32818
 30
0.0
 10
48.17851
 20
123.32818
 30
0.0
 10
48.17851
 20
123.32818
 30
0.0
  0
SPLINE
  5
8B
330
1F
100
AcDbEntity
  8
layer 1
 62
   242
370
     9
100
AcDbSpline
210
0.0
220
0.0
230
1.0
 70
    24
 71
     3
 72
     8
 73
     4
 74
     0
 42
0.0000000001
 43
0.0000000001
 12
1.0
 22
0.0
 32
0.0
 13
1.0
 23
0.0
 33
0.0
 40
0.0
 40
0.0
 40
0.0
 40
0.0
 40
1.0
 40
1.0
 40
1.0
 40
1.0
 10
43.09851
 20
123.32818
 30
0.0
 10
43.09851
 20
123.32818
 30
0.0
 10
43.09851
 20
33.32818
 30
0.0
 10
43.09851
 20
33.32818
 30
0.0
  0
SPLINE
  5
8C
330
1F
100
AcDbEntity
  8
layer 1
 62
   242
370
     9
100
AcDbSpline
210
0.0
220
0.0
230
1.0
 70
    11
 71
     3
 72
    36
 73
    32
 74
     0
 42
0.0000000001
 43
0.0000000001
 12
1.0
 22
0.0
 32
0.0
 13
1.0
 23
0.0
 33
0.0
 40
0.0
 40
0.0
 40
0.0
 40
0.0
 40
0.1111111111111111
 40
0.1111111111111111
 40
0.1111111111111111
 40
0.1111111111111111
 40
0.2222222222222222
 40
0.2222222222222222
 40
0.2222222222222222
 40
0.2222222222222222
 40
0.3333333333333333
 40
0.3333333333333333
 40
0.3333333333333333
 40
0.3333333333333333
 40
0.4444444444444444
 40
0.4444444444444444
 40
0.4444444444444444
 40
0.4444444444444444
 40
0.5555555555555556
 40
0.5555555555555556
 40
0.5555555555555556
 40
0.5555555555555556
 40
0.6666666666666666
 40
0.6666666666666666
 40
0.6666666666666666
 40
0.6666666666666666
 40
0.7777777777777778
 40
0.7777777777777778
 40
0.7777777777777778
 40
0.7777777777777778
 40
1.0
 40
1.0
 40
1.0
 40
1.0
 10
-87.56659
 20
123.32818
 30
0.0
 10
-87.56659
 20
123.32818
 30
0.0
 10
15.43341
 20
123.32818
 30
0.0
 10
15.43341
 20
123.32818
 30
0.0
 10
15.43341
 20
123.32818
 30
0.0
 10
18.73341
 20
123.32818
 30
0.0
 10
21.43341
 20
120.62818
 30
0.0
 10
21.43341
 20
117.32818
 30
0.0
 10
21.43341
 20
117.32818
 30
0.0
 10
21.43341
 20
117.32818
 30
0.0
 10
21.43341
 20
39.32818
 30
0.0
 10
21.43341
 20
39.32818
 30
0.0
 10
21.43341
 20
39.32818
 30
0.0
 10
21.43341
 20
36.02818
 30
0.0
 10
18.73341
 20
33.32818
 30
0.0
 10
15.43341
 20
33.32818
 30
0.0
 10
15.43341
 20
33.32818
 30
0.0
 10
15.43341
 20
33.32818
 30
0.0
 10
-87.56659
 20
33.32818
 30
0.0
 10
-87.56659
 20
33.32818
 30
0.0
 10
-87.56659
 20
33.32818
 30
0.0
 10
-90.86659
 20
33.32818
 30
0.0
 10
-93.56659
 20
36.02818
 30
0.0
 10
-93.56659
 20
39.32818
 30
0.0
 10
-93.56659
 20
39.32818
 30
0.0
 10
-93.56659
 20
39.32818
 30
0.0
 10
-93.56659
 20
117.32818
 30
0.0
 10
-93.56659
 20
117.32818
 30
0.0
 10
-93.56659
 20
117.32818
 30
0.0
 10
-93.56659
 20
120.62818
 30
0.0
 10
-90.86659
 20
123.32818
 30
0.0
 10
-87.56659
 20
123.32818
 30
0.0
  0
SPLINE
  5
8D
330
1F
100
AcDbEntity
  8
layer 1
 62
   242
370
     9
100
AcDbSpline
210
0.0
220
0.0
230
1.0
 70
    24
 71
     3
 72
     8
 73
     4
 74
     0
 42
0.0000000001
 43
0.0000000001
 12
1.0
 22
0.0
 32
0.0
 13
1.0
 23
0.0
 33
0.0
 40
0.0
 40
0.0
 40
0.0
 40
0.0
 40
1.0
 40
1.0
 40
1.0
 40
1.0
 10
21.43341
 20
36.78818
 30
0.0
 10
21.43341
 20
36.78818
 30
0.0
 10
21.43341
 20
7.10358
 30
0.0
 10
21.43341
 20
7.10358
 30
0.0
  0
SPLINE
  5
8E
330
1F
100
AcDbEntity
  8
layer 1
 62
   242
370
     9
100
AcDbSpline
210
0.0
220
0.0
230
1.0
 70
    24
 71
     3
 72
     8
 73
     4
 74
     0
 42
0.0000000001
 43
0.0000000001
 12
1.0
 22
0.0
 32
0.0
 13
1.0
 23
0.0
 33
0.0
 40
0.0
 40
0.0
 40
0.0
 40
0.0
 40
1.0
 40
1.0
 40
1.0
 40
1.0
 10
-93.56659
 20
36.78818
 30
0.0
 10
-93.56659
 20
36.78818
 30
0.0
 10
-93.56659
 20
7.10358
 30
0.0
 10
-93.56659
 20
7.10358
 30
0.0
  0
SPLINE
  5
8F
330
1F
100
AcDbEntity
  8
layer 1
 62
   242
370
     9
100
AcDbSpline
210
0.0
220
0.0
230
1.0
 70
    24
 71
     3
 72
     8
 73
     4
 74
     0
 42
0.0000000001
 43
0.0000000001
 12
1.0
 22
0.0
 32
0.0
 13
1.0
 23
0.0
 33
0.0
 40
0.0
 40
0.0
 40
0.0
 40
0.0
 40
1.0
 40
1.0
 40
1.0
 40
1.0
 10
-93.56659
 20
12.18358
 30
0.0
 10
-93.56659
 20
12.18358
 30
0.0
 10
21.43341
 20
12.18358
 30
0.0
 10
21.43341
 20
12.18358
 30
0.0
  0
SPLINE
  5
90
330
1F
100
AcDbEntity
  8
layer 1
 62
   242
370
     9
100
AcDbSpline
210
0.0
220
0.0
230
1.0
 70
    24
 71
     3
 72
     8
 73
     4
 74
     0
 42
0.0000000001
 43
0.0000000001
 12
1.0
 22
0.0
 32
0.0
 13
1.0
 23
0.0
 33
0.0
 40
0.0
 40
0.0
 40
0.0
 40
0.0
 40
1.0
 40
1.0
 40
1.0
 40
1.0
 10
3.43341
 20
112.03818
 30
0.0
 10
3.43341
 20
112.03818
 30
0.0
 10
3.43341
 20
99.19968
 30
0.0
 10
3.43341
 20
99.19968
 30
0.0
  0
SPLINE
  5
91
330
1F
100
AcDbEntity
  8
layer 1
 62
   242
370
     9
100
AcDbSpline
210
0.0
220
0.0
230
1.0
 70
    24
 71
     3
 72
     8
 73
     4
 74
     0
 42
0.0000000001
 43
0.0000000001
 12
1.0
 22
0.0
 32
0.0
 13
1.0
 23
0.0
 33
0.0
 40
0.0
 40
0.0
 40
0.0
 40
0.0
 40
1.0
 40
1.0
 40
1.0
 40
1.0
 10
-75.56659
 20
112.03818
 30
0.0
 10
-75.56659
 20
112.03818
 30
0.0
 10
-75.56659
 20
99.19968
 30
0.0
 10
-75.56659
 20
99.19968
 30
0.0
  0
SPLINE
  5
92
330
1F
100
AcDbEntity
  8
layer 1
 62
   242
370
     9
100
AcDbSpline
210
0.0
220
0.0
230
1.0
 70
    24
 71
     3
 72
     8
 73
     4
 74
     0
 42
0.0000000001
 43
0.0000000001
 12
1.0
 22
0.0
 32
0.0
 13
1.0
 23
0.0
 33
0.0
 40
0.0
 40
0.0
 40
0.0
 40
0.0
 40
1.0
 40
1.0
 40
1.0
 40
1.0
 10
-75.56659
 20
104.27968
 30
0.0
 10
-75.56659
 20
104.27968
 30
0.0
 10
3.43341
 20
104.27968
 30
0.0
 10
3.43341
 20
104.27968
 30
0.0
  0
SPLINE
  5
93
330
1F
100
AcDbEntity
  8
layer 1
 62
   242
370
     9
100
AcDbSpline
210
0.0
220
0.0
230
1.0
 70
    11
 71
     3
 72
    44
 73
    40
 74
     0
 42
0.0000000001
 43
0.0000000001
 12
1.0
 22
0.0
 32
0.0
 13
1.0
 23
0.0
 33
0.0
 40
0.0
 40
0.0
 40
0.0
 40
0.0
 40
0.0909090909090909
 40
0.0909090909090909
 40
0.0909090909090909
 40
0.0909090909090909
 40
0.1818181818181818
 40
0.1818181818181818
 40
0.1818181818181818
 40
0.1818181818181818
 40
0.2727272727272727
 40
0.2727272727272727
 40
0.2727272727272727
 40
0.2727272727272727
 40
0.3636363636363636
 40
0.3636363636363636
 40
0.3636363636363636
 40
0.3636363636363636
 40
0.4545454545454545
 40
0.4545454545454545
 40
0.4545454545454545
 40
0.4545454545454545
 40
0.5454545454545454
 40
0.5454545454545454
 40
0.5454545454545454
 40
0.5454545454545454
 40
0.6363636363636364
 40
0.6363636363636364
 40
0.6363636363636364
 40
0.6363636363636364
 40
0.7272727272727273
 40
0.7272727272727273
 40
0.7272727272727273
 40
0.7272727272727273
 40
0.8181818181818182
 40
0.8181818181818182
 40
0.8181818181818182
 40
0.8181818181818182
 40
1.0
 40
1.0
 40
1.0
 40
1.0
 10
-38.10739
 20
108.54578
 30
0.0
 10
-38.10739
 20
108.54578
 30
0.0
 10
-36.60449
 20
108.54578
 30
0.0
 10
-36.60449
 20
108.54578
 30
0.0
 10
-36.60449
 20
108.54578
 30
0.0
 10
-36.60449
 20
108.54578
 30
0.0
 10
-36.60449
 20
108.46458
 30
0.0
 10
-36.60449
 20
108.46458
 30
0.0
 10
-36.60449
 20
108.46458
 30
0.0
 10
-36.60449
 20
108.46458
 30
0.0
 10
-37.53589
 20
105.67978
 30
0.0
 10
-37.53589
 20
105.67978
 30
0.0
 10
-37.53589
 20
105.67978
 30
0.0
 10
-37.53589
 20
105.67978
 30
0.0
 10
-37.76799
 20
105.67978
 30
0.0
 10
-37.76799
 20
105.67978
 30
0.0
 10
-37.76799
 20
105.67978
 30
0.0
 10
-37.76799
 20
105.67978
 30
0.0
 10
-36.93049
 20
108.20708
 30
0.0
 10
-36.93049
 20
108.20708
 30
0.0
 10
-36.93049
 20
108.20708
 30
0.0
 10
-36.93049
 20
108.20708
 30
0.0
 10
-37.70169
 20
108.20708
 30
0.0
 10
-37.70169
 20
108.20708
 30
0.0
 10
-37.70169
 20
108.20708
 30
0.0
 10
-37.85759
 20
108.20708
 30
0.0
 10
-37.96839
 20
108.18878
 30
0.0
 10
-38.03469
 20
108.15138
 30
0.0
 10
-38.03469
 20
108.15138
 30
0.0
 10
-38.15039
 20
108.08788
 30
0.0
 10
-38.24349
 20
107.98978
 30
0.0
 10
-38.31409
 20
107.85788
 30
0.0
 10
-38.31409
 20
107.85788
 30
0.0
 10
-38.31409
 20
107.85788
 30
0.0
 10
-38.37409
 20
107.88038
 30
0.0
 10
-38.37409
 20
107.88038
 30
0.0
 10
-38.37409
 20
107.88038
 30
0.0
 10
-38.37409
 20
107.88038
 30
0.0
 10
-38.10739
 20
108.54578
 30
0.0
 10
-38.10739
 20
108.54578
 30
0.0
  0
SPLINE
  5
94
330
1F
100
AcDbEntity
  8
layer 1
 62
   242
370
     9
100
AcDbSpline
210
0.0
220
0.0
230
1.0
 70
    11
 71
     3
 72
    64
 73
    60
 74
     0
 42
0.0000000001
 43
0.0000000001
 12
1.0
 22
0.0
 32
0.0
 13
1.0
 23
0.0
 33
0.0
 40
0.0
 40
0.0
 40
0.0
 40
0.0
 40
0.0625
 40
0.0625
 40
0.0625
 40
0.0625
 40
0.125
 40
0.125
 40
0.125
 40
0.125
 40
0.1875
 40
0.1875
 40
0.1875
 40
0.1875
 40
0.25
 40
0.25
 40
0.25
 40
0.25
 40
0.3125
 40
0.3125
 40
0.3125
 40
0.3125
 40
0.375
 40
0.375
 40
0.375
 40
0.375
 40
0.4375
 40
0.4375
 40
0.4375
 40
0.4375
 40
0.5
 40
0.5
 40
0.5
 40
0.5
 40
0.5625
 40
0.5625
 40
0.5625
 40
0.5625
 40
0.625
 40
0.625
 40
0.625
 40
0.625
 40
0.6875
 40
0.6875
 40
0.6875
 40
0.6875
 40
0.75
 40
0.75
 40
0.75
 40
0.75
 40
0.8125
 40
0.8125
 40
0.8125
 40
0.8125
 40
0.875
 40
0.875
 40
0.875
 40
0.875
 40
1.0
 40
1.0
 40
1.0
 40
1.0
 10
-36.18959
 20
105.67978
 30
0.0
 10
-36.18959
 20
105.67978
 30
0.0
 10
-36.18959
 20
105.75598
 30
0.0
 10
-36.18959
 20
105.75598
 30
0.0
 10
-36.18959
 20
105.75598
 30
0.0
 10
-36.01109
 20
105.75888
 30
0.0
 10
-35.84459
 20
105.80048
 30
0.0
 10
-35.69079
 20
105.88158
 30
0.0
 10
-35.69079
 20
105.88158
 30
0.0
 10
-35.53629
 20
105.96278
 30
0.0
 10
-35.38809
 20
106.10458
 30
0.0
 10
-35.24419
 20
106.30638
 30
0.0
 10
-35.24419
 20
106.30638
 30
0.0
 10
-35.10029
 20
106.50888
 30
0.0
 10
-35.00079
 20
106.73038
 30
0.0
 10
-34.94429
 20
106.97028
 30
0.0
 10
-34.94429
 20
106.97028
 30
0.0
 10
-35.15949
 20
106.83268
 30
0.0
 10
-35.35499
 20
106.76358
 30
0.0
 10
-35.52919
 20
106.76358
 30
0.0
 10
-35.52919
 20
106.76358
 30
0.0
 10
-35.72609
 20
106.76358
 30
0.0
 10
-35.89399
 20
106.83978
 30
0.0
 10
-36.03439
 20
106.99148
 30
0.0
 10
-36.03439
 20
106.99148
 30
0.0
 10
-36.17479
 20
107.14388
 30
0.0
 10
-36.24469
 20
107.34558
 30
0.0
 10
-36.24469
 20
107.59748
 30
0.0
 10
-36.24469
 20
107.59748
 30
0.0
 10
-36.24469
 20
107.84228
 30
0.0
 10
-36.17409
 20
108.06038
 30
0.0
 10
-36.03369
 20
108.25228
 30
0.0
 10
-36.03369
 20
108.25228
 30
0.0
 10
-35.86509
 20
108.48438
 30
0.0
 10
-35.64349
 20
108.60078
 30
0.0
 10
-35.37119
 20
108.60078
 30
0.0
 10
-35.37119
 20
108.60078
 30
0.0
 10
-35.14119
 20
108.60078
 30
0.0
 10
-34.94429
 20
108.50558
 30
0.0
 10
-34.78069
 20
108.31508
 30
0.0
 10
-34.78069
 20
108.31508
 30
0.0
 10
-34.57959
 20
108.07938
 30
0.0
 10
-34.47939
 20
107.78868
 30
0.0
 10
-34.47939
 20
107.44228
 30
0.0
 10
-34.47939
 20
107.44228
 30
0.0
 10
-34.47939
 20
107.13038
 30
0.0
 10
-34.55559
 20
106.83978
 30
0.0
 10
-34.70869
 20
106.57018
 30
0.0
 10
-34.70869
 20
106.57018
 30
0.0
 10
-34.86179
 20
106.30068
 30
0.0
 10
-35.07419
 20
106.07708
 30
0.0
 10
-35.34719
 20
105.89928
 30
0.0
 10
-35.34719
 20
105.89928
 30
0.0
 10
-35.56879
 20
105.75318
 30
0.0
 10
-35.80999
 20
105.67978
 30
0.0
 10
-36.07179
 20
105.67978
 30
0.0
 10
-36.07179
 20
105.67978
 30
0.0
 10
-36.07179
 20
105.67978
 30
0.0
 10
-36.18959
 20
105.67978
 30
0.0
 10
-36.18959
 20
105.67978
 30
0.0
  0
SPLINE
  5
95
330
1F
100
AcDbEntity
  8
layer 1
 62
   242
370
     9
100
AcDbSpline
210
0.0
220
0.0
230
1.0
 70
    11
 71
     3
 72
    44
 73
    40
 74
     0
 42
0.0000000001
 43
0.0000000001
 12
1.0
 22
0.0
 32
0.0
 13
1.0
 23
0.0
 33
0.0
 40
0.0
 40
0.0
 40
0.0
 40
0.0
 40
0.0909090909090909
 40
0.0909090909090909
 40
0.0909090909090909
 40
0.0909090909090909
 40
0.1818181818181818
 40
0.1818181818181818
 40
0.1818181818181818
 40
0.1818181818181818
 40
0.2727272727272727
 40
0.2727272727272727
 40
0.2727272727272727
 40
0.2727272727272727
 40
0.3636363636363636
 40
0.3636363636363636
 40
0.3636363636363636
 40
0.3636363636363636
 40
0.4545454545454545
 40
0.4545454545454545
 40
0.4545454545454545
 40
0.4545454545454545
 40
0.5454545454545454
 40
0.5454545454545454
 40
0.5454545454545454
 40
0.5454545454545454
 40
0.6363636363636364
 40
0.6363636363636364
 40
0.6363636363636364
 40
0.6363636363636364
 40
0.7272727272727273
 40
0.7272727272727273
 40
0.7272727272727273
 40
0.7272727272727273
 40
0.8181818181818182
 40
0.8181818181818182
 40
0.8181818181818182
 40
0.8181818181818182
 40
1.0
 40
1.0
 40
1.0
 40
1.0
 10
-34.91119
 20
107.12338
 30
0.0
 10
-34.88579
 20
107.30188
 30
0.0
 10
-34.87309
 20
107.44508
 30
0.0
 10
-34.87309
 20
107.55308
 30
0.0
 10
-34.87309
 20
107.55308
 30
0.0
 10
-34.87309
 20
107.68638
 30
0.0
 10
-34.89569
 20
107.83038
 30
0.0
 10
-34.94079
 20
107.98558
 30
0.0
 10
-34.94079
 20
107.98558
 30
0.0
 10
-34.98669
 20
108.14008
 30
0.0
 10
-35.05089
 20
108.25858
 30
0.0
 10
-35.13339
 20
108.34118
 30
0.0
 10
-35.13339
 20
108.34118
 30
0.0
 10
-35.21669
 20
108.42368
 30
0.0
 10
-35.31119
 20
108.46528
 30
0.0
 10
-35.41709
 20
108.46528
 30
0.0
 10
-35.41709
 20
108.46528
 30
0.0
 10
-35.53909
 20
108.46528
 30
0.0
 10
-35.64639
 20
108.41028
 30
0.0
 10
-35.73809
 20
108.30018
 30
0.0
 10
-35.73809
 20
108.30018
 30
0.0
 10
-35.83049
 20
108.19018
 30
0.0
 10
-35.87639
 20
108.02648
 30
0.0
 10
-35.87639
 20
107.80848
 30
0.0
 10
-35.87639
 20
107.80848
 30
0.0
 10
-35.87639
 20
107.51848
 30
0.0
 10
-35.81499
 20
107.29128
 30
0.0
 10
-35.69289
 20
107.12758
 30
0.0
 10
-35.69289
 20
107.12758
 30
0.0
 10
-35.60399
 20
107.00908
 30
0.0
 10
-35.49399
 20
106.94978
 30
0.0
 10
-35.36409
 20
106.94978
 30
0.0
 10
-35.36409
 20
106.94978
 30
0.0
 10
-35.30059
 20
106.94978
 30
0.0
 10
-35.22589
 20
106.96458
 30
0.0
 10
-35.13979
 20
106.99498
 30
0.0
 10
-35.13979
 20
106.99498
 30
0.0
 10
-35.05299
 20
107.02528
 30
0.0
 10
-34.97679
 20
107.06838
 30
0.0
 10
-34.91119
 20
107.12338
 30
0.0
  0
SPLINE
  5
96
330
1F
100
AcDbEntity
  8
layer 1
 62
   242
370
     9
100
AcDbSpline
210
0.0
220
0.0
230
1.0
 70
    11
 71
     3
 72
    36
 73
    32
 74
     0
 42
0.0000000001
 43
0.0000000001
 12
1.0
 22
0.0
 32
0.0
 13
1.0
 23
0.0
 33
0.0
 40
0.0
 40
0.0
 40
0.0
 40
0.0
 40
0.1111111111111111
 40
0.1111111111111111
 40
0.1111111111111111
 40
0.1111111111111111
 40
0.2222222222222222
 40
0.2222222222222222
 40
0.2222222222222222
 40
0.2222222222222222
 40
0.3333333333333333
 40
0.3333333333333333
 40
0.3333333333333333
 40
0.3333333333333333
 40
0.4444444444444444
 40
0.4444444444444444
 40
0.4444444444444444
 40
0.4444444444444444
 40
0.5555555555555556
 40
0.5555555555555556
 40
0.5555555555555556
 40
0.5555555555555556
 40
0.6666666666666666
 40
0.6666666666666666
 40
0.6666666666666666
 40
0.6666666666666666
 40
0.7777777777777778
 40
0.7777777777777778
 40
0.7777777777777778
 40
0.7777777777777778
 40
1.0
 40
1.0
 40
1.0
 40
1.0
 10
-33.76809
 20
106.14128
 30
0.0
 10
-33.70389
 20
106.14128
 30
0.0
 10
-33.64959
 20
106.11868
 30
0.0
 10
-33.60519
 20
106.07418
 30
0.0
 10
-33.60519
 20
106.07418
 30
0.0
 10
-33.56139
 20
106.02978
 30
0.0
 10
-33.53949
 20
105.97618
 30
0.0
 10
-33.53949
 20
105.91268
 30
0.0
 10
-33.53949
 20
105.91268
 30
0.0
 10
-33.53949
 20
105.84988
 30
0.0
 10
-33.56209
 20
105.79548
 30
0.0
 10
-33.60659
 20
105.75108
 30
0.0
 10
-33.60659
 20
105.75108
 30
0.0
 10
-33.65099
 20
105.70658
 30
0.0
 10
-33.70459
 20
105.68408
 30
0.0
 10
-33.76809
 20
105.68408
 30
0.0
 10
-33.76809
 20
105.68408
 30
0.0
 10
-33.83089
 20
105.68408
 30
0.0
 10
-33.88529
 20
105.70658
 30
0.0
 10
-33.92969
 20
105.75108
 30
0.0
 10
-33.92969
 20
105.75108
 30
0.0
 10
-33.97419
 20
105.79548
 30
0.0
 10
-33.99669
 20
105.84988
 30
0.0
 10
-33.99669
 20
105.91268
 30
0.0
 10
-33.99669
 20
105.91268
 30
0.0
 10
-33.99669
 20
105.97688
 30
0.0
 10
-33.97419
 20
106.03118
 30
0.0
 10
-33.92969
 20
106.07558
 30
0.0
 10
-33.92969
 20
106.07558
 30
0.0
 10
-33.88529
 20
106.11938
 30
0.0
 10
-33.83089
 20
106.14128
 30
0.0
 10
-33.76809
 20
106.14128
 30
0.0
  0
SPLINE
  5
97
330
1F
100
AcDbEntity
  8
layer 1
 62
   242
370
     9
100
AcDbSpline
210
0.0
220
0.0
230
1.0
 70
    11
 71
     3
 72
    44
 73
    40
 74
     0
 42
0.0000000001
 43
0.0000000001
 12
1.0
 22
0.0
 32
0.0
 13
1.0
 23
0.0
 33
0.0
 40
0.0
 40
0.0
 40
0.0
 40
0.0
 40
0.0909090909090909
 40
0.0909090909090909
 40
0.0909090909090909
 40
0.0909090909090909
 40
0.1818181818181818
 40
0.1818181818181818
 40
0.1818181818181818
 40
0.1818181818181818
 40
0.2727272727272727
 40
0.2727272727272727
 40
0.2727272727272727
 40
0.2727272727272727
 40
0.3636363636363636
 40
0.3636363636363636
 40
0.3636363636363636
 40
0.3636363636363636
 40
0.4545454545454545
 40
0.4545454545454545
 40
0.4545454545454545
 40
0.4545454545454545
 40
0.5454545454545454
 40
0.5454545454545454
 40
0.5454545454545454
 40
0.5454545454545454
 40
0.6363636363636364
 40
0.6363636363636364
 40
0.6363636363636364
 40
0.6363636363636364
 40
0.7272727272727273
 40
0.7272727272727273
 40
0.7272727272727273
 40
0.7272727272727273
 40
0.8181818181818182
 40
0.8181818181818182
 40
0.8181818181818182
 40
0.8181818181818182
 40
1.0
 40
1.0
 40
1.0
 40
1.0
 10
-33.08659
 20
107.12618
 30
0.0
 10
-33.08659
 20
107.44578
 30
0.0
 10
-33.03859
 20
107.72028
 30
0.0
 10
-32.94199
 20
107.95098
 30
0.0
 10
-32.94199
 20
107.95098
 30
0.0
 10
-32.84529
 20
108.18168
 30
0.0
 10
-32.71759
 20
108.35388
 30
0.0
 10
-32.55739
 20
108.46678
 30
0.0
 10
-32.55739
 20
108.46678
 30
0.0
 10
-32.43399
 20
108.55638
 30
0.0
 10
-32.30559
 20
108.60078
 30
0.0
 10
-32.17359
 20
108.60078
 30
0.0
 10
-32.17359
 20
108.60078
 30
0.0
 10
-31.95839
 20
108.60078
 30
0.0
 10
-31.76579
 20
108.49148
 30
0.0
 10
-31.59509
 20
108.27268
 30
0.0
 10
-31.59509
 20
108.27268
 30
0.0
 10
-31.38129
 20
108.00108
 30
0.0
 10
-31.27469
 20
107.63348
 30
0.0
 10
-31.27469
 20
107.16918
 30
0.0
 10
-31.27469
 20
107.16918
 30
0.0
 10
-31.27469
 20
106.84468
 30
0.0
 10
-31.32129
 20
106.56808
 30
0.0
 10
-31.41519
 20
106.34088
 30
0.0
 10
-31.41519
 20
106.34088
 30
0.0
 10
-31.50899
 20
106.11368
 30
0.0
 10
-31.62819
 20
105.94938
 30
0.0
 10
-31.77359
 20
105.84628
 30
0.0
 10
-31.77359
 20
105.84628
 30
0.0
 10
-31.91889
 20
105.74398
 30
0.0
 10
-32.05929
 20
105.69248
 30
0.0
 10
-32.19409
 20
105.69248
 30
0.0
 10
-32.19409
 20
105.69248
 30
0.0
 10
-32.46149
 20
105.69248
 30
0.0
 10
-32.68369
 20
105.84988
 30
0.0
 10
-32.86149
 20
106.16528
 30
0.0
 10
-32.86149
 20
106.16528
 30
0.0
 10
-33.01179
 20
106.43118
 30
0.0
 10
-33.08659
 20
106.75158
 30
0.0
 10
-33.08659
 20
107.12618
 30
0.0
  0
SPLINE
  5
98
330
1F
100
AcDbEntity
  8
layer 1
 62
   242
370
     9
100
AcDbSpline
210
0.0
220
0.0
230
1.0
 70
    11
 71
     3
 72
    48
 73
    44
 74
     0
 42
0.0000000001
 43
0.0000000001
 12
1.0
 22
0.0
 32
0.0
 13
1.0
 23
0.0
 33
0.0
 40
0.0
 40
0.0
 40
0.0
 40
0.0
 40
0.0833333333333333
 40
0.0833333333333333
 40
0.0833333333333333
 40
0.0833333333333333
 40
0.1666666666666667
 40
0.1666666666666667
 40
0.1666666666666667
 40
0.1666666666666667
 40
0.25
 40
0.25
 40
0.25
 40
0.25
 40
0.3333333333333333
 40
0.3333333333333333
 40
0.3333333333333333
 40
0.3333333333333333
 40
0.4166666666666667
 40
0.4166666666666667
 40
0.4166666666666667
 40
0.4166666666666667
 40
0.5
 40
0.5
 40
0.5
 40
0.5
 40
0.5833333333333334
 40
0.5833333333333334
 40
0.5833333333333334
 40
0.5833333333333334
 40
0.6666666666666666
 40
0.6666666666666666
 40
0.6666666666666666
 40
0.6666666666666666
 40
0.75
 40
0.75
 40
0.75
 40
0.75
 40
0.8333333333333334
 40
0.8333333333333334
 40
0.8333333333333334
 40
0.8333333333333334
 40
1.0
 40
1.0
 40
1.0
 40
1.0
 10
-32.68019
 20
107.07538
 30
0.0
 10
-32.68019
 20
106.69018
 30
0.0
 10
-32.63289
 20
106.37548
 30
0.0
 10
-32.53839
 20
106.13138
 30
0.0
 10
-32.53839
 20
106.13138
 30
0.0
 10
-32.46009
 20
105.92608
 30
0.0
 10
-32.34299
 20
105.82378
 30
0.0
 10
-32.18769
 20
105.82378
 30
0.0
 10
-32.18769
 20
105.82378
 30
0.0
 10
-32.11359
 20
105.82378
 30
0.0
 10
-32.03669
 20
105.85688
 30
0.0
 10
-31.95699
 20
105.92398
 30
0.0
 10
-31.95699
 20
105.92398
 30
0.0
 10
-31.87729
 20
105.99098
 30
0.0
 10
-31.81729
 20
106.10248
 30
0.0
 10
-31.77569
 20
106.25978
 30
0.0
 10
-31.77569
 20
106.25978
 30
0.0
 10
-31.71289
 20
106.49618
 30
0.0
 10
-31.68109
 20
106.83058
 30
0.0
 10
-31.68109
 20
107.26098
 30
0.0
 10
-31.68109
 20
107.26098
 30
0.0
 10
-31.68109
 20
107.58058
 30
0.0
 10
-31.71429
 20
107.84728
 30
0.0
 10
-31.77989
 20
108.06038
 30
0.0
 10
-31.77989
 20
108.06038
 30
0.0
 10
-31.82929
 20
108.21908
 30
0.0
 10
-31.89349
 20
108.33128
 30
0.0
 10
-31.97179
 20
108.39688
 30
0.0
 10
-31.97179
 20
108.39688
 30
0.0
 10
-32.02759
 20
108.44278
 30
0.0
 10
-32.09599
 20
108.46528
 30
0.0
 10
-32.17569
 20
108.46528
 30
0.0
 10
-32.17569
 20
108.46528
 30
0.0
 10
-32.26889
 20
108.46528
 30
0.0
 10
-32.35209
 20
108.42298
 30
0.0
 10
-32.42479
 20
108.33908
 30
0.0
 10
-32.42479
 20
108.33908
 30
0.0
 10
-32.52359
 20
108.22478
 30
0.0
 10
-32.59129
 20
108.04548
 30
0.0
 10
-32.62659
 20
107.79998
 30
0.0
 10
-32.62659
 20
107.79998
 30
0.0
 10
-32.66259
 20
107.55518
 30
0.0
 10
-32.68019
 20
107.31388
 30
0.0
 10
-32.68019
 20
107.07538
 30
0.0
  0
SPLINE
  5
99
330
1F
100
AcDbEntity
  8
layer 1
 62
   242
370
     9
100
AcDbSpline
210
0.0
220
0.0
230
1.0
 70
    24
 71
     3
 72
     8
 73
     4
 74
     0
 42
0.0000000001
 43
0.0000000001
 12
1.0
 22
0.0
 32
0.0
 13
1.0
 23
0.0
 33
0.0
 40
0.0
 40
0.0
 40
0.0
 40
0.0
 40
1.0
 40
1.0
 40
1.0
 40
1.0
 10
0.89341
 20
43.32818
 30
0.0
 10
0.89341
 20
43.32818
 30
0.0
 10
-11.79939
 20
43.32818
 30
0.0
 10
-11.79939
 20
43.32818
 30
0.0
  0
SPLINE
  5
9A
330
1F
100
AcDbEntity
  8
layer 1
 62
   242
370
     9
100
AcDbSpline
210
0.0
220
0.0
230
1.0
 70
    24
 71
     3
 72
     8
 73
     4
 74
     0
 42
0.0000000001
 43
0.0000000001
 12
1.0
 22
0.0
 32
0.0
 13
1.0
 23
0.0
 33
0.0
 40
0.0
 40
0.0
 40
0.0
 40
0.0
 40
1.0
 40
1.0
 40
1.0
 40
1.0
 10
-0.35659
 20
113.32818
 30
0.0
 10
-0.35659
 20
113.32818
 30
0.0
 10
-11.79939
 20
113.32818
 30
0.0
 10
-11.79939
 20
113.32818
 30
0.0
  0
SPLINE
  5
9B
330
1F
100
AcDbEntity
  8
layer 1
 62
   242
370
     9
100
AcDbSpline
210
0.0
220
0.0
230
1.0
 70
    24
 71
     3
 72
     8
 73
     4
 74
     0
 42
0.0000000001
 43
0.0000000001
 12
1.0
 22
0.0
 32
0.0
 13
1.0
 23
0.0
 33
0.0
 40
0.0
 40
0.0
 40
0.0
 40
0.0
 40
1.0
 40
1.0
 40
1.0
 40
1.0
 10
-6.71939
 20
113.32818
 30
0.0
 10
-6.71939
 20
113.32818
 30
0.0
 10
-6.71939
 20
43.32818
 30
0.0
 10
-6.71939
 20
43.32818
 30
0.0
  0
SPLINE
  5
9C
330
1F
100
AcDbEntity
  8
layer 1
 62
   242
370
     9
100
AcDbSpline
210
0.0
220
0.0
230
1.0
 70
    11
 71
     3
 72
    44
 73
    40
 74
     0
 42
0.0000000001
 43
0.0000000001
 12
1.0
 22
0.0
 32
0.0
 13
1.0
 23
0.0
 33
0.0
 40
0.0
 40
0.0
 40
0.0
 40
0.0
 40
0.0909090909090909
 40
0.0909090909090909
 40
0.0909090909090909
 40
0.0909090909090909
 40
0.1818181818181818
 40
0.1818181818181818
 40
0.1818181818181818
 40
0.1818181818181818
 40
0.2727272727272727
 40
0.2727272727272727
 40
0.2727272727272727
 40
0.2727272727272727
 40
0.3636363636363636
 40
0.3636363636363636
 40
0.3636363636363636
 40
0.3636363636363636
 40
0.4545454545454545
 40
0.4545454545454545
 40
0.4545454545454545
 40
0.4545454545454545
 40
0.5454545454545454
 40
0.5454545454545454
 40
0.5454545454545454
 40
0.5454545454545454
 40
0.6363636363636364
 40
0.6363636363636364
 40
0.6363636363636364
 40
0.6363636363636364
 40
0.7272727272727273
 40
0.7272727272727273
 40
0.7272727272727273
 40
0.7272727272727273
 40
0.8181818181818182
 40
0.8181818181818182
 40
0.8181818181818182
 40
0.8181818181818182
 40
1.0
 40
1.0
 40
1.0
 40
1.0
 10
-10.98549
 20
70.96568
 30
0.0
 10
-10.98549
 20
70.96568
 30
0.0
 10
-10.98549
 20
72.46858
 30
0.0
 10
-10.98549
 20
72.46858
 30
0.0
 10
-10.98549
 20
72.46858
 30
0.0
 10
-10.98549
 20
72.46858
 30
0.0
 10
-10.90429
 20
72.46858
 30
0.0
 10
-10.90429
 20
72.46858
 30
0.0
 10
-10.90429
 20
72.46858
 30
0.0
 10
-10.90429
 20
72.46858
 30
0.0
 10
-8.11949
 20
71.53718
 30
0.0
 10
-8.11949
 20
71.53718
 30
0.0
 10
-8.11949
 20
71.53718
 30
0.0
 10
-8.11949
 20
71.53718
 30
0.0
 10
-8.11949
 20
71.30508
 30
0.0
 10
-8.11949
 20
71.30508
 30
0.0
 10
-8.11949
 20
71.30508
 30
0.0
 10
-8.11949
 20
71.30508
 30
0.0
 10
-10.64679
 20
72.14258
 30
0.0
 10
-10.64679
 20
72.14258
 30
0.0
 10
-10.64679
 20
72.14258
 30
0.0
 10
-10.64679
 20
72.14258
 30
0.0
 10
-10.64679
 20
71.37138
 30
0.0
 10
-10.64679
 20
71.37138
 30
0.0
 10
-10.64679
 20
71.37138
 30
0.0
 10
-10.64679
 20
71.21548
 30
0.0
 10
-10.62849
 20
71.10468
 30
0.0
 10
-10.59109
 20
71.03838
 30
0.0
 10
-10.59109
 20
71.03838
 30
0.0
 10
-10.52759
 20
70.92268
 30
0.0
 10
-10.42949
 20
70.82958
 30
0.0
 10
-10.29759
 20
70.75898
 30
0.0
 10
-10.29759
 20
70.75898
 30
0.0
 10
-10.29759
 20
70.75898
 30
0.0
 10
-10.32009
 20
70.69898
 30
0.0
 10
-10.32009
 20
70.69898
 30
0.0
 10
-10.32009
 20
70.69898
 30
0.0
 10
-10.32009
 20
70.69898
 30
0.0
 10
-10.98549
 20
70.96568
 30
0.0
 10
-10.98549
 20
70.96568
 30
0.0
  0
SPLINE
  5
9D
330
1F
100
AcDbEntity
  8
layer 1
 62
   242
370
     9
100
AcDbSpline
210
0.0
220
0.0
230
1.0
 70
    11
 71
     3
 72
    44
 73
    40
 74
     0
 42
0.0000000001
 43
0.0000000001
 12
1.0
 22
0.0
 32
0.0
 13
1.0
 23
0.0
 33
0.0
 40
0.0
 40
0.0
 40
0.0
 40
0.0
 40
0.0909090909090909
 40
0.0909090909090909
 40
0.0909090909090909
 40
0.0909090909090909
 40
0.1818181818181818
 40
0.1818181818181818
 40
0.1818181818181818
 40
0.1818181818181818
 40
0.2727272727272727
 40
0.2727272727272727
 40
0.2727272727272727
 40
0.2727272727272727
 40
0.3636363636363636
 40
0.3636363636363636
 40
0.3636363636363636
 40
0.3636363636363636
 40
0.4545454545454545
 40
0.4545454545454545
 40
0.4545454545454545
 40
0.4545454545454545
 40
0.5454545454545454
 40
0.5454545454545454
 40
0.5454545454545454
 40
0.5454545454545454
 40
0.6363636363636364
 40
0.6363636363636364
 40
0.6363636363636364
 40
0.6363636363636364
 40
0.7272727272727273
 40
0.7272727272727273
 40
0.7272727272727273
 40
0.7272727272727273
 40
0.8181818181818182
 40
0.8181818181818182
 40
0.8181818181818182
 40
0.8181818181818182
 40
1.0
 40
1.0
 40
1.0
 40
1.0
 10
-9.56589
 20
72.81148
 30
0.0
 10
-9.88549
 20
72.81148
 30
0.0
 10
-10.15999
 20
72.85948
 30
0.0
 10
-10.39069
 20
72.95608
 30
0.0
 10
-10.39069
 20
72.95608
 30
0.0
 10
-10.62139
 20
73.05278
 30
0.0
 10
-10.79359
 20
73.18048
 30
0.0
 10
-10.90649
 20
73.34068
 30
0.0
 10
-10.90649
 20
73.34068
 30
0.0
 10
-10.99609
 20
73.46408
 30
0.0
 10
-11.04049
 20
73.59248
 30
0.0
 10
-11.04049
 20
73.72448
 30
0.0
 10
-11.04049
 20
73.72448
 30
0.0
 10
-11.04049
 20
73.93968
 30
0.0
 10
-10.93119
 20
74.13228
 30
0.0
 10
-10.71239
 20
74.30298
 30
0.0
 10
-10.71239
 20
74.30298
 30
0.0
 10
-10.44079
 20
74.51678
 30
0.0
 10
-10.07319
 20
74.62338
 30
0.0
 10
-9.60889
 20
74.62338
 30
0.0
 10
-9.60889
 20
74.62338
 30
0.0
 10
-9.28439
 20
74.62338
 30
0.0
 10
-9.00779
 20
74.57678
 30
0.0
 10
-8.78059
 20
74.48288
 30
0.0
 10
-8.78059
 20
74.48288
 30
0.0
 10
-8.55339
 20
74.38908
 30
0.0
 10
-8.38909
 20
74.26988
 30
0.0
 10
-8.28599
 20
74.12448
 30
0.0
 10
-8.28599
 20
74.12448
 30
0.0
 10
-8.18369
 20
73.97918
 30
0.0
 10
-8.13219
 20
73.83878
 30
0.0
 10
-8.13219
 20
73.70398
 30
0.0
 10
-8.13219
 20
73.70398
 30
0.0
 10
-8.13219
 20
73.43658
 30
0.0
 10
-8.28959
 20
73.21438
 30
0.0
 10
-8.60499
 20
73.03658
 30
0.0
 10
-8.60499
 20
73.03658
 30
0.0
 10
-8.87089
 20
72.88628
 30
0.0
 10
-9.19129
 20
72.81148
 30
0.0
 10
-9.56589
 20
72.81148
 30
0.0
  0
SPLINE
  5
9E
330
1F
100
AcDbEntity
  8
layer 1
 62
   242
370
     9
100
AcDbSpline
210
0.0
220
0.0
230
1.0
 70
    11
 71
     3
 72
    48
 73
    44
 74
     0
 42
0.0000000001
 43
0.0000000001
 12
1.0
 22
0.0
 32
0.0
 13
1.0
 23
0.0
 33
0.0
 40
0.0
 40
0.0
 40
0.0
 40
0.0
 40
0.0833333333333333
 40
0.0833333333333333
 40
0.0833333333333333
 40
0.0833333333333333
 40
0.1666666666666667
 40
0.1666666666666667
 40
0.1666666666666667
 40
0.1666666666666667
 40
0.25
 40
0.25
 40
0.25
 40
0.25
 40
0.3333333333333333
 40
0.3333333333333333
 40
0.3333333333333333
 40
0.3333333333333333
 40
0.4166666666666667
 40
0.4166666666666667
 40
0.4166666666666667
 40
0.4166666666666667
 40
0.5
 40
0.5
 40
0.5
 40
0.5
 40
0.5833333333333334
 40
0.5833333333333334
 40
0.5833333333333334
 40
0.5833333333333334
 40
0.6666666666666666
 40
0.6666666666666666
 40
0.6666666666666666
 40
0.6666666666666666
 40
0.75
 40
0.75
 40
0.75
 40
0.75
 40
0.8333333333333334
 40
0.8333333333333334
 40
0.8333333333333334
 40
0.8333333333333334
 40
1.0
 40
1.0
 40
1.0
 40
1.0
 10
-9.51509
 20
73.21788
 30
0.0
 10
-9.12989
 20
73.21788
 30
0.0
 10
-8.81519
 20
73.26518
 30
0.0
 10
-8.57109
 20
73.35968
 30
0.0
 10
-8.57109
 20
73.35968
 30
0.0
 10
-8.36579
 20
73.43798
 30
0.0
 10
-8.26349
 20
73.55508
 30
0.0
 10
-8.26349
 20
73.71038
 30
0.0
 10
-8.26349
 20
73.71038
 30
0.0
 10
-8.26349
 20
73.78448
 30
0.0
 10
-8.29659
 20
73.86138
 30
0.0
 10
-8.36369
 20
73.94108
 30
0.0
 10
-8.36369
 20
73.94108
 30
0.0
 10
-8.43069
 20
74.02078
 30
0.0
 10
-8.54219
 20
74.08078
 30
0.0
 10
-8.69949
 20
74.12238
 30
0.0
 10
-8.69949
 20
74.12238
 30
0.0
 10
-8.93589
 20
74.18518
 30
0.0
 10
-9.27029
 20
74.21698
 30
0.0
 10
-9.70069
 20
74.21698
 30
0.0
 10
-9.70069
 20
74.21698
 30
0.0
 10
-10.02029
 20
74.21698
 30
0.0
 10
-10.28699
 20
74.18378
 30
0.0
 10
-10.50009
 20
74.11818
 30
0.0
 10
-10.50009
 20
74.11818
 30
0.0
 10
-10.65879
 20
74.06878
 30
0.0
 10
-10.77099
 20
74.00458
 30
0.0
 10
-10.83659
 20
73.92628
 30
0.0
 10
-10.83659
 20
73.92628
 30
0.0
 10
-10.88249
 20
73.87048
 30
0.0
 10
-10.90499
 20
73.80208
 30
0.0
 10
-10.90499
 20
73.72238
 30
0.0
 10
-10.90499
 20
73.72238
 30
0.0
 10
-10.90499
 20
73.62918
 30
0.0
 10
-10.86269
 20
73.54598
 30
0.0
 10
-10.77879
 20
73.47328
 30
0.0
 10
-10.77879
 20
73.47328
 30
0.0
 10
-10.66449
 20
73.37448
 30
0.0
 10
-10.48519
 20
73.30678
 30
0.0
 10
-10.23969
 20
73.27148
 30
0.0
 10
-10.23969
 20
73.27148
 30
0.0
 10
-9.99489
 20
73.23548
 30
0.0
 10
-9.75359
 20
73.21788
 30
0.0
 10
-9.51509
 20
73.21788
 30
0.0
  0
SPLINE
  5
9F
330
1F
100
AcDbEntity
  8
layer 1
 62
   242
370
     9
100
AcDbSpline
210
0.0
220
0.0
230
1.0
 70
    11
 71
     3
 72
    36
 73
    32
 74
     0
 42
0.0000000001
 43
0.0000000001
 12
1.0
 22
0.0
 32
0.0
 13
1.0
 23
0.0
 33
0.0
 40
0.0
 40
0.0
 40
0.0
 40
0.0
 40
0.1111111111111111
 40
0.1111111111111111
 40
0.1111111111111111
 40
0.1111111111111111
 40
0.2222222222222222
 40
0.2222222222222222
 40
0.2222222222222222
 40
0.2222222222222222
 40
0.3333333333333333
 40
0.3333333333333333
 40
0.3333333333333333
 40
0.3333333333333333
 40
0.4444444444444444
 40
0.4444444444444444
 40
0.4444444444444444
 40
0.4444444444444444
 40
0.5555555555555556
 40
0.5555555555555556
 40
0.5555555555555556
 40
0.5555555555555556
 40
0.6666666666666666
 40
0.6666666666666666
 40
0.6666666666666666
 40
0.6666666666666666
 40
0.7777777777777778
 40
0.7777777777777778
 40
0.7777777777777778
 40
0.7777777777777778
 40
1.0
 40
1.0
 40
1.0
 40
1.0
 10
-8.58099
 20
75.30498
 30
0.0
 10
-8.58099
 20
75.36918
 30
0.0
 10
-8.55839
 20
75.42348
 30
0.0
 10
-8.51389
 20
75.46788
 30
0.0
 10
-8.51389
 20
75.46788
 30
0.0
 10
-8.46949
 20
75.51168
 30
0.0
 10
-8.41589
 20
75.53358
 30
0.0
 10
-8.35239
 20
75.53358
 30
0.0
 10
-8.35239
 20
75.53358
 30
0.0
 10
-8.28959
 20
75.53358
 30
0.0
 10
-8.23519
 20
75.51098
 30
0.0
 10
-8.19079
 20
75.46648
 30
0.0
 10
-8.19079
 20
75.46648
 30
0.0
 10
-8.14629
 20
75.42208
 30
0.0
 10
-8.12379
 20
75.36848
 30
0.0
 10
-8.12379
 20
75.30498
 30
0.0
 10
-8.12379
 20
75.30498
 30
0.0
 10
-8.12379
 20
75.24218
 30
0.0
 10
-8.14629
 20
75.18778
 30
0.0
 10
-8.19079
 20
75.14338
 30
0.0
 10
-8.19079
 20
75.14338
 30
0.0
 10
-8.23519
 20
75.09888
 30
0.0
 10
-8.28959
 20
75.07638
 30
0.0
 10
-8.35239
 20
75.07638
 30
0.0
 10
-8.35239
 20
75.07638
 30
0.0
 10
-8.41659
 20
75.07638
 30
0.0
 10
-8.47089
 20
75.09888
 30
0.0
 10
-8.51529
 20
75.14338
 30
0.0
 10
-8.51529
 20
75.14338
 30
0.0
 10
-8.55909
 20
75.18778
 30
0.0
 10
-8.58099
 20
75.24218
 30
0.0
 10
-8.58099
 20
75.30498
 30
0.0
  0
SPLINE
  5
A0
330
1F
100
AcDbEntity
  8
layer 1
 62
   242
370
     9
100
AcDbSpline
210
0.0
220
0.0
230
1.0
 70
    11
 71
     3
 72
    44
 73
    40
 74
     0
 42
0.0000000001
 43
0.0000000001
 12
1.0
 22
0.0
 32
0.0
 13
1.0
 23
0.0
 33
0.0
 40
0.0
 40
0.0
 40
0.0
 40
0.0
 40
0.0909090909090909
 40
0.0909090909090909
 40
0.0909090909090909
 40
0.0909090909090909
 40
0.1818181818181818
 40
0.1818181818181818
 40
0.1818181818181818
 40
0.1818181818181818
 40
0.2727272727272727
 40
0.2727272727272727
 40
0.2727272727272727
 40
0.2727272727272727
 40
0.3636363636363636
 40
0.3636363636363636
 40
0.3636363636363636
 40
0.3636363636363636
 40
0.4545454545454545
 40
0.4545454545454545
 40
0.4545454545454545
 40
0.4545454545454545
 40
0.5454545454545454
 40
0.5454545454545454
 40
0.5454545454545454
 40
0.5454545454545454
 40
0.6363636363636364
 40
0.6363636363636364
 40
0.6363636363636364
 40
0.6363636363636364
 40
0.7272727272727273
 40
0.7272727272727273
 40
0.7272727272727273
 40
0.7272727272727273
 40
0.8181818181818182
 40
0.8181818181818182
 40
0.8181818181818182
 40
0.8181818181818182
 40
1.0
 40
1.0
 40
1.0
 40
1.0
 10
-9.56589
 20
75.98648
 30
0.0
 10
-9.88549
 20
75.98648
 30
0.0
 10
-10.15999
 20
76.03448
 30
0.0
 10
-10.39069
 20
76.13108
 30
0.0
 10
-10.39069
 20
76.13108
 30
0.0
 10
-10.62139
 20
76.22778
 30
0.0
 10
-10.79359
 20
76.35548
 30
0.0
 10
-10.90649
 20
76.51568
 30
0.0
 10
-10.90649
 20
76.51568
 30
0.0
 10
-10.99609
 20
76.63908
 30
0.0
 10
-11.04049
 20
76.76748
 30
0.0
 10
-11.04049
 20
76.89948
 30
0.0
 10
-11.04049
 20
76.89948
 30
0.0
 10
-11.04049
 20
77.11468
 30
0.0
 10
-10.93119
 20
77.30728
 30
0.0
 10
-10.71239
 20
77.47798
 30
0.0
 10
-10.71239
 20
77.47798
 30
0.0
 10
-10.44079
 20
77.69178
 30
0.0
 10
-10.07319
 20
77.79838
 30
0.0
 10
-9.60889
 20
77.79838
 30
0.0
 10
-9.60889
 20
77.79838
 30
0.0
 10
-9.28439
 20
77.79838
 30
0.0
 10
-9.00779
 20
77.75178
 30
0.0
 10
-8.78059
 20
77.65788
 30
0.0
 10
-8.78059
 20
77.65788
 30
0.0
 10
-8.55339
 20
77.56408
 30
0.0
 10
-8.38909
 20
77.44488
 30
0.0
 10
-8.28599
 20
77.29948
 30
0.0
 10
-8.28599
 20
77.29948
 30
0.0
 10
-8.18369
 20
77.15418
 30
0.0
 10
-8.13219
 20
77.01378
 30
0.0
 10
-8.13219
 20
76.87898
 30
0.0
 10
-8.13219
 20
76.87898
 30
0.0
 10
-8.13219
 20
76.61158
 30
0.0
 10
-8.28959
 20
76.38938
 30
0.0
 10
-8.60499
 20
76.21158
 30
0.0
 10
-8.60499
 20
76.21158
 30
0.0
 10
-8.87089
 20
76.06128
 30
0.0
 10
-9.19129
 20
75.98648
 30
0.0
 10
-9.56589
 20
75.98648
 30
0.0
  0
SPLINE
  5
A1
330
1F
100
AcDbEntity
  8
layer 1
 62
   242
370
     9
100
AcDbSpline
210
0.0
220
0.0
230
1.0
 70
    11
 71
     3
 72
    48
 73
    44
 74
     0
 42
0.0000000001
 43
0.0000000001
 12
1.0
 22
0.0
 32
0.0
 13
1.0
 23
0.0
 33
0.0
 40
0.0
 40
0.0
 40
0.0
 40
0.0
 40
0.0833333333333333
 40
0.0833333333333333
 40
0.0833333333333333
 40
0.0833333333333333
 40
0.1666666666666667
 40
0.1666666666666667
 40
0.1666666666666667
 40
0.1666666666666667
 40
0.25
 40
0.25
 40
0.25
 40
0.25
 40
0.3333333333333333
 40
0.3333333333333333
 40
0.3333333333333333
 40
0.3333333333333333
 40
0.4166666666666667
 40
0.4166666666666667
 40
0.4166666666666667
 40
0.4166666666666667
 40
0.5
 40
0.5
 40
0.5
 40
0.5
 40
0.5833333333333334
 40
0.5833333333333334
 40
0.5833333333333334
 40
0.5833333333333334
 40
0.6666666666666666
 40
0.6666666666666666
 40
0.6666666666666666
 40
0.6666666666666666
 40
0.75
 40
0.75
 40
0.75
 40
0.75
 40
0.8333333333333334
 40
0.8333333333333334
 40
0.8333333333333334
 40
0.8333333333333334
 40
1.0
 40
1.0
 40
1.0
 40
1.0
 10
-9.51509
 20
76.39288
 30
0.0
 10
-9.12989
 20
76.39288
 30
0.0
 10
-8.81519
 20
76.44018
 30
0.0
 10
-8.57109
 20
76.53468
 30
0.0
 10
-8.57109
 20
76.53468
 30
0.0
 10
-8.36579
 20
76.61298
 30
0.0
 10
-8.26349
 20
76.73008
 30
0.0
 10
-8.26349
 20
76.88538
 30
0.0
 10
-8.26349
 20
76.88538
 30
0.0
 10
-8.26349
 20
76.95948
 30
0.0
 10
-8.29659
 20
77.03638
 30
0.0
 10
-8.36369
 20
77.11608
 30
0.0
 10
-8.36369
 20
77.11608
 30
0.0
 10
-8.43069
 20
77.19578
 30
0.0
 10
-8.54219
 20
77.25578
 30
0.0
 10
-8.69949
 20
77.29738
 30
0.0
 10
-8.69949
 20
77.29738
 30
0.0
 10
-8.93589
 20
77.36018
 30
0.0
 10
-9.27029
 20
77.39198
 30
0.0
 10
-9.70069
 20
77.39198
 30
0.0
 10
-9.70069
 20
77.39198
 30
0.0
 10
-10.02029
 20
77.39198
 30
0.0
 10
-10.28699
 20
77.35878
 30
0.0
 10
-10.50009
 20
77.29318
 30
0.0
 10
-10.50009
 20
77.29318
 30
0.0
 10
-10.65879
 20
77.24378
 30
0.0
 10
-10.77099
 20
77.17958
 30
0.0
 10
-10.83659
 20
77.10128
 30
0.0
 10
-10.83659
 20
77.10128
 30
0.0
 10
-10.88249
 20
77.04548
 30
0.0
 10
-10.90499
 20
76.97708
 30
0.0
 10
-10.90499
 20
76.89738
 30
0.0
 10
-10.90499
 20
76.89738
 30
0.0
 10
-10.90499
 20
76.80418
 30
0.0
 10
-10.86269
 20
76.72098
 30
0.0
 10
-10.77879
 20
76.64828
 30
0.0
 10
-10.77879
 20
76.64828
 30
0.0
 10
-10.66449
 20
76.54948
 30
0.0
 10
-10.48519
 20
76.48178
 30
0.0
 10
-10.23969
 20
76.44648
 30
0.0
 10
-10.23969
 20
76.44648
 30
0.0
 10
-9.99489
 20
76.41048
 30
0.0
 10
-9.75359
 20
76.39288
 30
0.0
 10
-9.51509
 20
76.39288
 30
0.0
  0
SPLINE
  5
A2
330
1F
100
AcDbEntity
  8
layer 1
 62
   242
370
     9
100
AcDbSpline
210
0.0
220
0.0
230
1.0
 70
    11
 71
     3
 72
    28
 73
    24
 74
     0
 42
0.0000000001
 43
0.0000000001
 12
1.0
 22
0.0
 32
0.0
 13
1.0
 23
0.0
 33
0.0
 40
0.0
 40
0.0
 40
0.0
 40
0.0
 40
0.1428571428571428
 40
0.1428571428571428
 40
0.1428571428571428
 40
0.1428571428571428
 40
0.2857142857142857
 40
0.2857142857142857
 40
0.2857142857142857
 40
0.2857142857142857
 40
0.4285714285714285
 40
0.4285714285714285
 40
0.4285714285714285
 40
0.4285714285714285
 40
0.5714285714285714
 40
0.5714285714285714
 40
0.5714285714285714
 40
0.5714285714285714
 40
0.7142857142857143
 40
0.7142857142857143
 40
0.7142857142857143
 40
0.7142857142857143
 40
1.0
 40
1.0
 40
1.0
 40
1.0
 10
40.06321
 20
-6.28972
 30
0.0
 10
40.06321
 20
-6.28972
 30
0.0
 10
126.06331
 20
-6.28972
 30
0.0
 10
126.06331
 20
-6.28972
 30
0.0
 10
126.06331
 20
-6.28972
 30
0.0
 10
126.88831
 20
-6.28972
 30
0.0
 10
127.53281
 20
-6.98824
 30
0.0
 10
127.56331
 20
-7.8397
 30
0.0
 10
127.56331
 20
-7.8397
 30
0.0
 10
127.56331
 20
-7.8397
 30
0.0
 10
128.06331
 20
-21.78982
 30
0.0
 10
128.06331
 20
-21.78982
 30
0.0
 10
128.06331
 20
-21.78982
 30
0.0
 10
128.06331
 20
-21.78982
 30
0.0
 10
38.06321
 20
-21.78982
 30
0.0
 10
38.06321
 20
-21.78982
 30
0.0
 10
38.06321
 20
-21.78982
 30
0.0
 10
38.06321
 20
-21.78982
 30
0.0
 10
38.56321
 20
-7.8397
 30
0.0
 10
38.56321
 20
-7.8397
 30
0.0
 10
38.56321
 20
-7.8397
 30
0.0
 10
38.59371
 20
-6.98783
 30
0.0
 10
39.23821
 20
-6.28972
 30
0.0
 10
40.06321
 20
-6.28972
 30
0.0
  0
SPLINE
  5
A3
330
1F
100
AcDbEntity
  8
layer 1
 62
   242
370
     9
100
AcDbSpline
210
0.0
220
0.0
230
1.0
 70
    11
 71
     3
 72
    28
 73
    24
 74
     0
 42
0.0000000001
 43
0.0000000001
 12
1.0
 22
0.0
 32
0.0
 13
1.0
 23
0.0
 33
0.0
 40
0.0
 40
0.0
 40
0.0
 40
0.0
 40
0.1428571428571428
 40
0.1428571428571428
 40
0.1428571428571428
 40
0.1428571428571428
 40
0.2857142857142857
 40
0.2857142857142857
 40
0.2857142857142857
 40
0.2857142857142857
 40
0.4285714285714285
 40
0.4285714285714285
 40
0.4285714285714285
 40
0.4285714285714285
 40
0.5714285714285714
 40
0.5714285714285714
 40
0.5714285714285714
 40
0.5714285714285714
 40
0.7142857142857143
 40
0.7142857142857143
 40
0.7142857142857143
 40
0.7142857142857143
 40
1.0
 40
1.0
 40
1.0
 40
1.0
 10
40.47801
 20
-61.68972
 30
0.0
 10
40.47801
 20
-61.68972
 30
0.0
 10
125.64851
 20
-61.68972
 30
0.0
 10
125.64851
 20
-61.68972
 30
0.0
 10
125.64851
 20
-61.68972
 30
0.0
 10
126.70161
 20
-61.68972
 30
0.0
 10
127.54931
 20
-60.85239
 30
0.0
 10
127.56311
 20
-59.82906
 30
0.0
 10
127.56311
 20
-59.82906
 30
0.0
 10
127.56311
 20
-59.82906
 30
0.0
 10
128.06311
 20
-22.81712
 30
0.0
 10
128.06311
 20
-22.81712
 30
0.0
 10
128.06311
 20
-22.81712
 30
0.0
 10
128.06311
 20
-22.81712
 30
0.0
 10
38.06341
 20
-22.81712
 30
0.0
 10
38.06341
 20
-22.81712
 30
0.0
 10
38.06341
 20
-22.81712
 30
0.0
 10
38.06341
 20
-22.81712
 30
0.0
 10
38.56341
 20
-59.82906
 30
0.0
 10
38.56341
 20
-59.82906
 30
0.0
 10
38.56341
 20
-59.82906
 30
0.0
 10
38.57721
 20
-60.852
 30
0.0
 10
39.42491
 20
-61.68972
 30
0.0
 10
40.47801
 20
-61.68972
 30
0.0
  0
SPLINE
  5
A4
330
1F
100
AcDbEntity
  8
layer 1
 62
   242
370
     9
100
AcDbSpline
210
0.0
220
0.0
230
1.0
 70
    11
 71
     3
 72
    20
 73
    16
 74
     0
 42
0.0000000001
 43
0.0000000001
 12
1.0
 22
0.0
 32
0.0
 13
1.0
 23
0.0
 33
0.0
 40
0.0
 40
0.0
 40
0.0
 40
0.0
 40
0.2
 40
0.2
 40
0.2
 40
0.2
 40
0.4
 40
0.4
 40
0.4
 40
0.4
 40
0.6
 40
0.6
 40
0.6
 40
0.6
 40
1.0
 40
1.0
 40
1.0
 40
1.0
 10
38.56321
 20
-22.78962
 30
0.0
 10
38.56321
 20
-22.78962
 30
0.0
 10
127.56331
 20
-22.78962
 30
0.0
 10
127.56331
 20
-22.78962
 30
0.0
 10
127.56331
 20
-22.78962
 30
0.0
 10
127.56331
 20
-22.78962
 30
0.0
 10
127.56331
 20
-21.78962
 30
0.0
 10
127.56331
 20
-21.78962
 30
0.0
 10
127.56331
 20
-21.78962
 30
0.0
 10
127.56331
 20
-21.78962
 30
0.0
 10
38.56321
 20
-21.78962
 30
0.0
 10
38.56321
 20
-21.78962
 30
0.0
 10
38.56321
 20
-21.78962
 30
0.0
 10
38.56321
 20
-21.78962
 30
0.0
 10
38.56321
 20
-22.78962
 30
0.0
 10
38.56321
 20
-22.78962
 30
0.0
  0
SPLINE
  5
A5
330
1F
100
AcDbEntity
  8
layer 1
 62
   242
370
     9
100
AcDbSpline
210
0.0
220
0.0
230
1.0
 70
    11
 71
     3
 72
    20
 73
    16
 74
     0
 42
0.0000000001
 43
0.0000000001
 12
1.0
 22
0.0
 32
0.0
 13
1.0
 23
0.0
 33
0.0
 40
0.0
 40
0.0
 40
0.0
 40
0.0
 40
0.2
 40
0.2
 40
0.2
 40
0.2
 40
0.4
 40
0.4
 40
0.4
 40
0.4
 40
0.6
 40
0.6
 40
0.6
 40
0.6
 40
1.0
 40
1.0
 40
1.0
 40
1.0
 10
40.31326
 20
-21.78972
 30
0.0
 10
40.31326
 20
-21.78972
 30
0.0
 10
125.81334
 20
-21.78972
 30
0.0
 10
125.81334
 20
-21.78972
 30
0.0
 10
125.81334
 20
-21.78972
 30
0.0
 10
125.81334
 20
-21.78972
 30
0.0
 10
125.81334
 20
-20.18972
 30
0.0
 10
125.81334
 20
-20.18972
 30
0.0
 10
125.81334
 20
-20.18972
 30
0.0
 10
125.81334
 20
-20.18972
 30
0.0
 10
40.31326
 20
-20.18972
 30
0.0
 10
40.31326
 20
-20.18972
 30
0.0
 10
40.31326
 20
-20.18972
 30
0.0
 10
40.31326
 20
-20.18972
 30
0.0
 10
40.31326
 20
-21.78972
 30
0.0
 10
40.31326
 20
-21.78972
 30
0.0
  0
SPLINE
  5
A6
330
1F
100
AcDbEntity
  8
layer 1
 62
   242
370
     9
100
AcDbSpline
210
0.0
220
0.0
230
1.0
 70
     8
 71
     3
 72
    24
 73
    20
 74
     0
 42
0.0000000001
 43
0.0000000001
 12
1.0
 22
0.0
 32
0.0
 13
1.0
 23
0.0
 33
0.0
 40
0.0
 40
0.0
 40
0.0
 40
0.0
 40
0.1666666666666667
 40
0.1666666666666667
 40
0.1666666666666667
 40
0.1666666666666667
 40
0.3333333333333333
 40
0.3333333333333333
 40
0.3333333333333333
 40
0.3333333333333333
 40
0.5
 40
0.5
 40
0.5
 40
0.5
 40
0.6666666666666666
 40
0.6666666666666666
 40
0.6666666666666666
 40
0.6666666666666666
 40
1.0
 40
1.0
 40
1.0
 40
1.0
 10
41.29951
 20
-21.78982
 30
0.0
 10
41.29951
 20
-21.78982
 30
0.0
 10
41.35911
 20
-25.14585
 30
0.0
 10
41.35911
 20
-25.14585
 30
0.0
 10
41.35911
 20
-25.14585
 30
0.0
 10
41.35911
 20
-25.14585
 30
0.0
 10
41.79561
 20
-58.18982
 30
0.0
 10
41.79561
 20
-58.18982
 30
0.0
 10
41.79561
 20
-58.18982
 30
0.0
 10
41.79561
 20
-58.18982
 30
0.0
 10
124.33311
 20
-58.18982
 30
0.0
 10
124.33311
 20
-58.18982
 30
0.0
 10
124.33311
 20
-58.18982
 30
0.0
 10
124.33311
 20
-58.18982
 30
0.0
 10
124.76961
 20
-25.14585
 30
0.0
 10
124.76961
 20
-25.14585
 30
0.0
 10
124.76961
 20
-25.14585
 30
0.0
 10
124.76961
 20
-25.14585
 30
0.0
 10
124.82701
 20
-21.78982
 30
0.0
 10
124.82701
 20
-21.78982
 30
0.0
  0
SPLINE
  5
A7
330
1F
100
AcDbEntity
  8
layer 1
 62
   242
370
     9
100
AcDbSpline
210
0.0
220
0.0
230
1.0
 70
    11
 71
     3
 72
    20
 73
    16
 74
     0
 42
0.0000000001
 43
0.0000000001
 12
1.0
 22
0.0
 32
0.0
 13
1.0
 23
0.0
 33
0.0
 40
0.0
 40
0.0
 40
0.0
 40
0.0
 40
0.2
 40
0.2
 40
0.2
 40
0.2
 40
0.4
 40
0.4
 40
0.4
 40
0.4
 40
0.6
 40
0.6
 40
0.6
 40
0.6
 40
1.0
 40
1.0
 40
1.0
 40
1.0
 10
45.56341
 20
-54.18972
 30
0.0
 10
45.56341
 20
-54.18972
 30
0.0
 10
51.56341
 20
-54.18972
 30
0.0
 10
51.56341
 20
-54.18972
 30
0.0
 10
51.56341
 20
-54.18972
 30
0.0
 10
51.56341
 20
-54.18972
 30
0.0
 10
51.56341
 20
-58.18972
 30
0.0
 10
51.56341
 20
-58.18972
 30
0.0
 10
51.56341
 20
-58.18972
 30
0.0
 10
51.56341
 20
-58.18972
 30
0.0
 10
45.56341
 20
-58.18972
 30
0.0
 10
45.56341
 20
-58.18972
 30
0.0
 10
45.56341
 20
-58.18972
 30
0.0
 10
45.56341
 20
-58.18972
 30
0.0
 10
45.56341
 20
-54.18972
 30
0.0
 10
45.56341
 20
-54.18972
 30
0.0
  0
SPLINE
  5
A8
330
1F
100
AcDbEntity
  8
layer 1
 62
   242
370
     9
100
AcDbSpline
210
0.0
220
0.0
230
1.0
 70
    11
 71
     3
 72
    20
 73
    16
 74
     0
 42
0.0000000001
 43
0.0000000001
 12
1.0
 22
0.0
 32
0.0
 13
1.0
 23
0.0
 33
0.0
 40
0.0
 40
0.0
 40
0.0
 40
0.0
 40
0.2
 40
0.2
 40
0.2
 40
0.2
 40
0.4
 40
0.4
 40
0.4
 40
0.4
 40
0.6
 40
0.6
 40
0.6
 40
0.6
 40
1.0
 40
1.0
 40
1.0
 40
1.0
 10
114.56331
 20
-54.18972
 30
0.0
 10
114.56331
 20
-54.18972
 30
0.0
 10
120.56331
 20
-54.18972
 30
0.0
 10
120.56331
 20
-54.18972
 30
0.0
 10
120.56331
 20
-54.18972
 30
0.0
 10
120.56331
 20
-54.18972
 30
0.0
 10
120.56331
 20
-58.18972
 30
0.0
 10
120.56331
 20
-58.18972
 30
0.0
 10
120.56331
 20
-58.18972
 30
0.0
 10
120.56331
 20
-58.18972
 30
0.0
 10
114.56331
 20
-58.18972
 30
0.0
 10
114.56331
 20
-58.18972
 30
0.0
 10
114.56331
 20
-58.18972
 30
0.0
 10
114.56331
 20
-58.18972
 30
0.0
 10
114.56331
 20
-54.18972
 30
0.0
 10
114.56331
 20
-54.18972
 30
0.0
  0
SPLINE
  5
A9
330
1F
100
AcDbEntity
  8
layer 1
 62
   242
370
     9
100
AcDbSpline
210
0.0
220
0.0
230
1.0
 70
     8
 71
     3
 72
    24
 73
    20
 74
     0
 42
0.0000000001
 43
0.0000000001
 12
1.0
 22
0.0
 32
0.0
 13
1.0
 23
0.0
 33
0.0
 40
0.0
 40
0.0
 40
0.0
 40
0.0
 40
0.1666666666666667
 40
0.1666666666666667
 40
0.1666666666666667
 40
0.1666666666666667
 40
0.3333333333333333
 40
0.3333333333333333
 40
0.3333333333333333
 40
0.3333333333333333
 40
0.5
 40
0.5
 40
0.5
 40
0.5
 40
0.6666666666666666
 40
0.6666666666666666
 40
0.6666666666666666
 40
0.6666666666666666
 40
1.0
 40
1.0
 40
1.0
 40
1.0
 10
59.65945
 20
-21.78972
 30
0.0
 10
59.65945
 20
-21.78972
 30
0.0
 10
59.70797
 20
-25.14575
 30
0.0
 10
59.70797
 20
-25.14575
 30
0.0
 10
59.70797
 20
-25.14575
 30
0.0
 10
59.70797
 20
-25.14575
 30
0.0
 10
60.06335
 20
-58.18972
 30
0.0
 10
60.06335
 20
-58.18972
 30
0.0
 10
60.06335
 20
-58.18972
 30
0.0
 10
60.06335
 20
-58.18972
 30
0.0
 10
106.06333
 20
-58.18962
 30
0.0
 10
106.06333
 20
-58.18962
 30
0.0
 10
106.06333
 20
-58.18962
 30
0.0
 10
106.06333
 20
-58.18962
 30
0.0
 10
106.41871
 20
-25.14565
 30
0.0
 10
106.41871
 20
-25.14565
 30
0.0
 10
106.41871
 20
-25.14565
 30
0.0
 10
106.41871
 20
-25.14565
 30
0.0
 10
106.46544
 20
-21.78962
 30
0.0
 10
106.46544
 20
-21.78962
 30
0.0
  0
SPLINE
  5
AA
330
1F
100
AcDbEntity
  8
layer 1
 62
   242
370
     9
100
AcDbSpline
210
0.0
220
0.0
230
1.0
 70
    11
 71
     3
 72
    20
 73
    16
 74
     0
 42
0.0000000001
 43
0.0000000001
 12
1.0
 22
0.0
 32
0.0
 13
1.0
 23
0.0
 33
0.0
 40
0.0
 40
0.0
 40
0.0
 40
0.0
 40
0.2
 40
0.2
 40
0.2
 40
0.2
 40
0.4
 40
0.4
 40
0.4
 40
0.4
 40
0.6
 40
0.6
 40
0.6
 40
0.6
 40
1.0
 40
1.0
 40
1.0
 40
1.0
 10
-91.31664
 20
-21.78972
 30
0.0
 10
-91.31664
 20
-21.78972
 30
0.0
 10
19.18336
 20
-21.78972
 30
0.0
 10
19.18336
 20
-21.78972
 30
0.0
 10
19.18336
 20
-21.78972
 30
0.0
 10
19.18336
 20
-21.78972
 30
0.0
 10
19.18336
 20
-20.18972
 30
0.0
 10
19.18336
 20
-20.18972
 30
0.0
 10
19.18336
 20
-20.18972
 30
0.0
 10
19.18336
 20
-20.18972
 30
0.0
 10
-91.31664
 20
-20.18972
 30
0.0
 10
-91.31664
 20
-20.18972
 30
0.0
 10
-91.31664
 20
-20.18972
 30
0.0
 10
-91.31664
 20
-20.18972
 30
0.0
 10
-91.31664
 20
-21.78972
 30
0.0
 10
-91.31664
 20
-21.78972
 30
0.0
  0
SPLINE
  5
AB
330
1F
100
AcDbEntity
  8
layer 1
 62
   242
370
     9
100
AcDbSpline
210
0.0
220
0.0
230
1.0
 70
     8
 71
     3
 72
    24
 73
    20
 74
     0
 42
0.0000000001
 43
0.0000000001
 12
1.0
 22
0.0
 32
0.0
 13
1.0
 23
0.0
 33
0.0
 40
0.0
 40
0.0
 40
0.0
 40
0.0
 40
0.1666666666666667
 40
0.1666666666666667
 40
0.1666666666666667
 40
0.1666666666666667
 40
0.3333333333333333
 40
0.3333333333333333
 40
0.3333333333333333
 40
0.3333333333333333
 40
0.5
 40
0.5
 40
0.5
 40
0.5
 40
0.6666666666666666
 40
0.6666666666666666
 40
0.6666666666666666
 40
0.6666666666666666
 40
1.0
 40
1.0
 40
1.0
 40
1.0
 10
-90.33029
 20
-21.78972
 30
0.0
 10
-90.33029
 20
-21.78972
 30
0.0
 10
-90.27069
 20
-25.14575
 30
0.0
 10
-90.27069
 20
-25.14575
 30
0.0
 10
-90.27069
 20
-25.14575
 30
0.0
 10
-90.27069
 20
-25.14575
 30
0.0
 10
-89.83419
 20
-58.18972
 30
0.0
 10
-89.83419
 20
-58.18972
 30
0.0
 10
-89.83419
 20
-58.18972
 30
0.0
 10
-89.83419
 20
-58.18972
 30
0.0
 10
17.70331
 20
-58.18972
 30
0.0
 10
17.70331
 20
-58.18972
 30
0.0
 10
17.70331
 20
-58.18972
 30
0.0
 10
17.70331
 20
-58.18972
 30
0.0
 10
18.13981
 20
-25.14575
 30
0.0
 10
18.13981
 20
-25.14575
 30
0.0
 10
18.13981
 20
-25.14575
 30
0.0
 10
18.13981
 20
-25.14575
 30
0.0
 10
18.19721
 20
-21.78972
 30
0.0
 10
18.19721
 20
-21.78972
 30
0.0
  0
SPLINE
  5
AC
330
1F
100
AcDbEntity
  8
layer 1
 62
   242
370
     9
100
AcDbSpline
210
0.0
220
0.0
230
1.0
 70
    11
 71
     3
 72
    20
 73
    16
 74
     0
 42
0.0000000001
 43
0.0000000001
 12
1.0
 22
0.0
 32
0.0
 13
1.0
 23
0.0
 33
0.0
 40
0.0
 40
0.0
 40
0.0
 40
0.0
 40
0.2
 40
0.2
 40
0.2
 40
0.2
 40
0.4
 40
0.4
 40
0.4
 40
0.4
 40
0.6
 40
0.6
 40
0.6
 40
0.6
 40
1.0
 40
1.0
 40
1.0
 40
1.0
 10
-77.06679
 20
-54.18972
 30
0.0
 10
-77.06679
 20
-54.18972
 30
0.0
 10
-71.06679
 20
-54.18972
 30
0.0
 10
-71.06679
 20
-54.18972
 30
0.0
 10
-71.06679
 20
-54.18972
 30
0.0
 10
-71.06679
 20
-54.18972
 30
0.0
 10
-71.06679
 20
-58.18972
 30
0.0
 10
-71.06679
 20
-58.18972
 30
0.0
 10
-71.06679
 20
-58.18972
 30
0.0
 10
-71.06679
 20
-58.18972
 30
0.0
 10
-77.06679
 20
-58.18972
 30
0.0
 10
-77.06679
 20
-58.18972
 30
0.0
 10
-77.06679
 20
-58.18972
 30
0.0
 10
-77.06679
 20
-58.18972
 30
0.0
 10
-77.06679
 20
-54.18972
 30
0.0
 10
-77.06679
 20
-54.18972
 30
0.0
  0
SPLINE
  5
AD
330
1F
100
AcDbEntity
  8
layer 1
 62
   242
370
     9
100
AcDbSpline
210
0.0
220
0.0
230
1.0
 70
    11
 71
     3
 72
    20
 73
    16
 74
     0
 42
0.0000000001
 43
0.0000000001
 12
1.0
 22
0.0
 32
0.0
 13
1.0
 23
0.0
 33
0.0
 40
0.0
 40
0.0
 40
0.0
 40
0.0
 40
0.2
 40
0.2
 40
0.2
 40
0.2
 40
0.4
 40
0.4
 40
0.4
 40
0.4
 40
0.6
 40
0.6
 40
0.6
 40
0.6
 40
1.0
 40
1.0
 40
1.0
 40
1.0
 10
-1.06679
 20
-54.18972
 30
0.0
 10
-1.06679
 20
-54.18972
 30
0.0
 10
4.93321
 20
-54.18972
 30
0.0
 10
4.93321
 20
-54.18972
 30
0.0
 10
4.93321
 20
-54.18972
 30
0.0
 10
4.93321
 20
-54.18972
 30
0.0
 10
4.93321
 20
-58.18972
 30
0.0
 10
4.93321
 20
-58.18972
 30
0.0
 10
4.93321
 20
-58.18972
 30
0.0
 10
4.93321
 20
-58.18972
 30
0.0
 10
-1.06679
 20
-58.18972
 30
0.0
 10
-1.06679
 20
-58.18972
 30
0.0
 10
-1.06679
 20
-58.18972
 30
0.0
 10
-1.06679
 20
-58.18972
 30
0.0
 10
-1.06679
 20
-54.18972
 30
0.0
 10
-1.06679
 20
-54.18972
 30
0.0
  0
SPLINE
  5
AE
330
1F
100
AcDbEntity
  8
layer 1
 62
   242
370
     9
100
AcDbSpline
210
0.0
220
0.0
230
1.0
 70
     8
 71
     3
 72
    24
 73
    20
 74
     0
 42
0.0000000001
 43
0.0000000001
 12
1.0
 22
0.0
 32
0.0
 13
1.0
 23
0.0
 33
0.0
 40
0.0
 40
0.0
 40
0.0
 40
0.0
 40
0.1666666666666667
 40
0.1666666666666667
 40
0.1666666666666667
 40
0.1666666666666667
 40
0.3333333333333333
 40
0.3333333333333333
 40
0.3333333333333333
 40
0.3333333333333333
 40
0.5
 40
0.5
 40
0.5
 40
0.5
 40
0.6666666666666666
 40
0.6666666666666666
 40
0.6666666666666666
 40
0.6666666666666666
 40
1.0
 40
1.0
 40
1.0
 40
1.0
 10
-80.56665
 20
-21.78972
 30
0.0
 10
-80.56665
 20
-21.78972
 30
0.0
 10
-80.51813
 20
-25.14575
 30
0.0
 10
-80.51813
 20
-25.14575
 30
0.0
 10
-80.51813
 20
-25.14575
 30
0.0
 10
-80.51813
 20
-25.14575
 30
0.0
 10
-80.16275
 20
-58.18972
 30
0.0
 10
-80.16275
 20
-58.18972
 30
0.0
 10
-80.16275
 20
-58.18972
 30
0.0
 10
-80.16275
 20
-58.18972
 30
0.0
 10
8.03111
 20
-58.18962
 30
0.0
 10
8.03111
 20
-58.18962
 30
0.0
 10
8.03111
 20
-58.18962
 30
0.0
 10
8.03111
 20
-58.18962
 30
0.0
 10
8.38649
 20
-25.14565
 30
0.0
 10
8.38649
 20
-25.14565
 30
0.0
 10
8.38649
 20
-25.14565
 30
0.0
 10
8.38649
 20
-25.14565
 30
0.0
 10
8.43322
 20
-21.78962
 30
0.0
 10
8.43322
 20
-21.78962
 30
0.0
  0
SPLINE
  5
AF
330
1F
100
AcDbEntity
  8
layer 1
 62
   242
370
     9
100
AcDbSpline
210
0.0
220
0.0
230
1.0
 70
    11
 71
     3
 72
    28
 73
    24
 74
     0
 42
0.0000000001
 43
0.0000000001
 12
1.0
 22
0.0
 32
0.0
 13
1.0
 23
0.0
 33
0.0
 40
0.0
 40
0.0
 40
0.0
 40
0.0
 40
0.1428571428571428
 40
0.1428571428571428
 40
0.1428571428571428
 40
0.1428571428571428
 40
0.2857142857142857
 40
0.2857142857142857
 40
0.2857142857142857
 40
0.2857142857142857
 40
0.4285714285714285
 40
0.4285714285714285
 40
0.4285714285714285
 40
0.4285714285714285
 40
0.5714285714285714
 40
0.5714285714285714
 40
0.5714285714285714
 40
0.5714285714285714
 40
0.7142857142857143
 40
0.7142857142857143
 40
0.7142857142857143
 40
0.7142857142857143
 40
1.0
 40
1.0
 40
1.0
 40
1.0
 10
-91.56659
 20
-6.28967
 30
0.0
 10
-91.56659
 20
-6.28967
 30
0.0
 10
19.43351
 20
-6.28967
 30
0.0
 10
19.43351
 20
-6.28967
 30
0.0
 10
19.43351
 20
-6.28967
 30
0.0
 10
20.25851
 20
-6.28967
 30
0.0
 10
20.90301
 20
-6.98829
 30
0.0
 10
20.93351
 20
-7.83964
 30
0.0
 10
20.93351
 20
-7.83964
 30
0.0
 10
20.93351
 20
-7.83964
 30
0.0
 10
21.43351
 20
-21.78967
 30
0.0
 10
21.43351
 20
-21.78967
 30
0.0
 10
21.43351
 20
-21.78967
 30
0.0
 10
21.43351
 20
-21.78967
 30
0.0
 10
-93.56659
 20
-21.78967
 30
0.0
 10
-93.56659
 20
-21.78967
 30
0.0
 10
-93.56659
 20
-21.78967
 30
0.0
 10
-93.56659
 20
-21.78967
 30
0.0
 10
-93.06659
 20
-7.83964
 30
0.0
 10
-93.06659
 20
-7.83964
 30
0.0
 10
-93.06659
 20
-7.83964
 30
0.0
 10
-93.03609
 20
-6.98778
 30
0.0
 10
-92.39159
 20
-6.28967
 30
0.0
 10
-91.56659
 20
-6.28967
 30
0.0
  0
SPLINE
  5
B0
330
1F
100
AcDbEntity
  8
layer 1
 62
   242
370
     9
100
AcDbSpline
210
0.0
220
0.0
230
1.0
 70
    11
 71
     3
 72
    28
 73
    24
 74
     0
 42
0.0000000001
 43
0.0000000001
 12
1.0
 22
0.0
 32
0.0
 13
1.0
 23
0.0
 33
0.0
 40
0.0
 40
0.0
 40
0.0
 40
0.0
 40
0.1428571428571428
 40
0.1428571428571428
 40
0.1428571428571428
 40
0.1428571428571428
 40
0.2857142857142857
 40
0.2857142857142857
 40
0.2857142857142857
 40
0.2857142857142857
 40
0.4285714285714285
 40
0.4285714285714285
 40
0.4285714285714285
 40
0.4285714285714285
 40
0.5714285714285714
 40
0.5714285714285714
 40
0.5714285714285714
 40
0.5714285714285714
 40
0.7142857142857143
 40
0.7142857142857143
 40
0.7142857142857143
 40
0.7142857142857143
 40
1.0
 40
1.0
 40
1.0
 40
1.0
 10
-91.15179
 20
-61.68972
 30
0.0
 10
-91.15179
 20
-61.68972
 30
0.0
 10
19.01871
 20
-61.68972
 30
0.0
 10
19.01871
 20
-61.68972
 30
0.0
 10
19.01871
 20
-61.68972
 30
0.0
 10
20.07181
 20
-61.68972
 30
0.0
 10
20.91961
 20
-60.86042
 30
0.0
 10
20.93331
 20
-59.84689
 30
0.0
 10
20.93331
 20
-59.84689
 30
0.0
 10
20.93331
 20
-59.84689
 30
0.0
 10
21.43331
 20
-22.7898
 30
0.0
 10
21.43331
 20
-22.7898
 30
0.0
 10
21.43331
 20
-22.7898
 30
0.0
 10
21.43331
 20
-22.7898
 30
0.0
 10
-93.56639
 20
-22.7898
 30
0.0
 10
-93.56639
 20
-22.7898
 30
0.0
 10
-93.56639
 20
-22.7898
 30
0.0
 10
-93.56639
 20
-22.7898
 30
0.0
 10
-93.06639
 20
-59.84689
 30
0.0
 10
-93.06639
 20
-59.84689
 30
0.0
 10
-93.06639
 20
-59.84689
 30
0.0
 10
-93.05269
 20
-60.85984
 30
0.0
 10
-92.20489
 20
-61.68972
 30
0.0
 10
-91.15179
 20
-61.68972
 30
0.0
  0
SPLINE
  5
B1
330
1F
100
AcDbEntity
  8
layer 1
 62
   242
370
     9
100
AcDbSpline
210
0.0
220
0.0
230
1.0
 70
    11
 71
     3
 72
    20
 73
    16
 74
     0
 42
0.0000000001
 43
0.0000000001
 12
1.0
 22
0.0
 32
0.0
 13
1.0
 23
0.0
 33
0.0
 40
0.0
 40
0.0
 40
0.0
 40
0.0
 40
0.2
 40
0.2
 40
0.2
 40
0.2
 40
0.4
 40
0.4
 40
0.4
 40
0.4
 40
0.6
 40
0.6
 40
0.6
 40
0.6
 40
1.0
 40
1.0
 40
1.0
 40
1.0
 10
-93.06659
 20
-21.78972
 30
0.0
 10
-93.06659
 20
-21.78972
 30
0.0
 10
20.93351
 20
-21.78972
 30
0.0
 10
20.93351
 20
-21.78972
 30
0.0
 10
20.93351
 20
-21.78972
 30
0.0
 10
20.93351
 20
-21.78972
 30
0.0
 10
20.93351
 20
-22.78972
 30
0.0
 10
20.93351
 20
-22.78972
 30
0.0
 10
20.93351
 20
-22.78972
 30
0.0
 10
20.93351
 20
-22.78972
 30
0.0
 10
-93.06659
 20
-22.78972
 30
0.0
 10
-93.06659
 20
-22.78972
 30
0.0
 10
-93.06659
 20
-22.78972
 30
0.0
 10
-93.06659
 20
-22.78972
 30
0.0
 10
-93.06659
 20
-21.78972
 30
0.0
 10
-93.06659
 20
-21.78972
 30
0.0
  0
ENDSEC
  0
SECTION
  2
OBJECTS
  0
DICTIONARY
  5
C
330
0
100
AcDbDictionary
281
     1
  3
ACAD_GROUP
350
D
  3
ACAD_LAYOUT
350
1A
  3
ACAD_MATERIAL
350
3B
  3
ACAD_MLEADERSTYLE
350
B4
  3
ACAD_MLINESTYLE
350
17
  3
ACAD_PLOTSETTINGS
350
19
  3
ACAD_PLOTSTYLENAME
350
E
  3
ACAD_VISUALSTYLE
350
2A
  3
AcDbVariableDictionary
350
B2
  0
DICTIONARY
  5
D
102
{ACAD_REACTORS
330
C
102
}
330
C
100
AcDbDictionary
281
     1
  0
DICTIONARY
  5
1A
102
{ACAD_REACTORS
330
C
102
}
330
C
100
AcDbDictionary
281
     1
  3
Layout1
350
1E
  3
Layout2
350
26
  3
Model
350
22
  0
DICTIONARY
  5
3B
102
{ACAD_REACTORS
330
C
102
}
330
C
100
AcDbDictionary
281
     1
  3
ByBlock
350
3D
  3
ByLayer
350
3C
  3
Global
350
3E
  0
DICTIONARY
  5
B4
102
{ACAD_REACTORS
330
C
102
}
330
C
100
AcDbDictionary
281
     1
  0
DICTIONARY
  5
17
102
{ACAD_REACTORS
330
C
102
}
330
C
100
AcDbDictionary
281
     1
  3
Standard
350
18
  0
DICTIONARY
  5
19
102
{ACAD_REACTORS
330
C
102
}
330
C
100
AcDbDictionary
281
     1
  0
ACDBDICTIONARYWDFLT
  5
E
102
{ACAD_REACTORS
330
C
102
}
330
C
100
AcDbDictionary
281
     1
  3
Normal
350
F
100
AcDbDictionaryWithDefault
340
F
  0
DICTIONARY
  5
2A
102
{ACAD_REACTORS
330
C
102
}
330
C
100
AcDbDictionary
281
     1
  3
2dWireframe
350
2F
  3
3D Hidden
350
31
  3
3dWireframe
350
30
  3
Basic
350
32
  3
Brighten
350
36
  3
ColorChange
350
3A
  3
Conceptual
350
34
  3
Dim
350
35
  3
Facepattern
350
39
  3
Flat
350
2B
  3
FlatWithEdges
350
2C
  3
Gouraud
350
2D
  3
GouraudWithEdges
350
2E
  3
Linepattern
350
38
  3
Realistic
350
33
  3
Thicken
350
37
  0
DICTIONARY
  5
B2
102
{ACAD_REACTORS
330
C
102
}
330
C
100
AcDbDictionary
281
     1
  3
DIMASSOC
350
B5
  3
HIDETEXT
350
B6
  0
LAYOUT
  5
1E
102
{ACAD_REACTORS
330
1A
102
}
330
1A
100
AcDbPlotSettings
  1

  2
none_device
  4

  6

 40
0.0
 41
0.0
 42
0.0
 43
0.0
 44
0.0
 45
0.0
 46
0.0
 47
0.0
 48
0.0
 49
0.0
140
0.0
141
0.0
142
1.0
143
1.0
 70
   688
 72
     0
 73
     0
 74
     5
  7

 75
    16
147
1.0
148
0.0
149
0.0
100
AcDbLayout
  1
Layout1
 70
     1
 71
     1
 10
0.0
 20
0.0
 11
12.0
 21
9.0
 12
0.0
 22
0.0
 32
0.0
 14
1.000000000000000E+20
 24
1.000000000000000E+20
 34
1.000000000000000E+20
 15
-1.000000000000000E+20
 25
-1.000000000000000E+20
 35
-1.000000000000000E+20
146
0.0
 13
0.0
 23
0.0
 33
0.0
 16
1.0
 26
0.0
 36
0.0
 17
0.0
 27
1.0
 37
0.0
 76
     0
330
1B
  0
LAYOUT
  5
26
102
{ACAD_REACTORS
330
1A
102
}
330
1A
100
AcDbPlotSettings
  1

  2
none_device
  4

  6

 40
0.0
 41
0.0
 42
0.0
 43
0.0
 44
0.0
 45
0.0
 46
0.0
 47
0.0
 48
0.0
 49
0.0
140
0.0
141
0.0
142
1.0
143
1.0
 70
   688
 72
     0
 73
     0
 74
     5
  7

 75
    16
147
1.0
148
0.0
149
0.0
100
AcDbLayout
  1
Layout2
 70
     1
 71
     2
 10
0.0
 20
0.0
 11
0.0
 21
0.0
 12
0.0
 22
0.0
 32
0.0
 14
0.0
 24
0.0
 34
0.0
 15
0.0
 25
0.0
 35
0.0
146
0.0
 13
0.0
 23
0.0
 33
0.0
 16
1.0
 26
0.0
 36
0.0
 17
0.0
 27
1.0
 37
0.0
 76
     0
330
23
  0
LAYOUT
  5
22
102
{ACAD_REACTORS
330
1A
102
}
330
1A
100
AcDbPlotSettings
  1

  2
none_device
  4

  6

 40
0.0
 41
0.0
 42
0.0
 43
0.0
 44
0.0
 45
0.0
 46
0.0
 47
0.0
 48
0.0
 49
0.0
140
0.0
141
0.0
142
1.0
143
1.0
 70
  1712
 72
     0
 73
     0
 74
     0
  7

 75
     0
147
1.0
148
0.0
149
0.0
100
AcDbLayout
  1
Model
 70
     1
 71
     0
 10
0.0
 20
0.0
 11
12.0
 21
9.0
 12
0.0
 22
0.0
 32
0.0
 14
-93.57054
 24
-61.69353
 34
0.0
 15
128.06726
 25
123.33199
 35
0.0
146
0.0
 13
0.0
 23
0.0
 33
0.0
 16
1.0
 26
0.0
 36
0.0
 17
0.0
 27
1.0
 37
0.0
 76
     0
330
1F
331
29
  0
MATERIAL
  5
3D
102
{ACAD_REACTORS
330
3B
102
}
102
{ACAD_XDICTIONARY
360
D9
102
}
330
3B
100
AcDbMaterial
  1
ByBlock
  0
MATERIAL
  5
3C
102
{ACAD_REACTORS
330
3B
102
}
102
{ACAD_XDICTIONARY
360
D7
102
}
330
3B
100
AcDbMaterial
  1
ByLayer
  0
MATERIAL
  5
3E
102
{ACAD_REACTORS
330
3B
102
}
102
{ACAD_XDICTIONARY
360
DB
102
}
330
3B
100
AcDbMaterial
  1
Global
  0
MLINESTYLE
  5
18
102
{ACAD_REACTORS
330
17
102
}
330
17
100
AcDbMlineStyle
  2
Standard
 70
     0
  3

 62
   256
 51
90.0
 52
90.0
 71
     2
 49
0.5
 62
   256
  6
BYLAYER
 49
-0.5
 62
   256
  6
BYLAYER
  0
ACDBPLACEHOLDER
  5
F
102
{ACAD_REACTORS
330
E
102
}
330
E
  0
VISUALSTYLE
  5
2F
102
{ACAD_REACTORS
330
2A
102
}
102
{ACAD_XDICTIONARY
360
BF
102
}
330
2A
100
AcDbVisualStyle
  2
2dWireframe
 70
     4
 71
     0
 72
     2
 73
     0
 90
        0
 40
-0.6
 41
-30.0
 62
     5
 63
     7
 74
     1
 91
        4
 64
     7
 65
   257
 75
     1
175
     1
 42
1.0
 92
        0
 66
   257
 43
1.0
 76
     1
 77
     6
 78
     2
 67
     7
 79
     5
170
     0
171
     0
290
     0
174
     0
 93
        1
 44
0.0
173
     0
291
     0
 45
0.0
1001
ACAD
1000
AcDbSavedByObjectVersion
1070
     0
  0
VISUALSTYLE
  5
31
102
{ACAD_REACTORS
330
2A
102
}
102
{ACAD_XDICTIONARY
360
C3
102
}
330
2A
100
AcDbVisualStyle
  2
3D Hidden
 70
     6
 71
     1
 72
     2
 73
     2
 90
        0
 40
-0.6
 41
-30.0
 62
     5
 63
     7
 74
     2
 91
        2
 64
     7
 65
   257
 75
     2
175
     1
 42
40.0
 92
        0
 66
   257
 43
1.0
 76
     1
 77
     6
 78
     2
 67
     7
 79
     3
170
     0
171
     0
290
     0
174
     0
 93
        1
 44
0.0
173
     0
291
     0
 45
0.0
1001
ACAD
1000
AcDbSavedByObjectVersion
1070
     0
  0
VISUALSTYLE
  5
30
102
{ACAD_REACTORS
330
2A
102
}
102
{ACAD_XDICTIONARY
360
C1
102
}
330
2A
100
AcDbVisualStyle
  2
3dWireframe
 70
     5
 71
     0
 72
     2
 73
     0
 90
        0
 40
-0.6
 41
-30.0
 62
     5
 63
     7
 74
     1
 91
        4
 64
     7
 65
   257
 75
     1
175
     1
 42
1.0
 92
        0
 66
   257
 43
1.0
 76
     1
 77
     6
 78
     2
 67
     7
 79
     5
170
     0
171
     0
290
     0
174
     0
 93
        1
 44
0.0
173
     0
291
     0
 45
0.0
1001
ACAD
1000
AcDbSavedByObjectVersion
1070
     0
  0
VISUALSTYLE
  5
32
102
{ACAD_REACTORS
330
2A
102
}
102
{ACAD_XDICTIONARY
360
C5
102
}
330
2A
100
AcDbVisualStyle
  2
Basic
 70
     7
 71
     1
 72
     0
 73
     1
 90
        0
 40
-0.6
 41
-30.0
 62
     5
 63
     7
 74
     0
 91
        4
 64
     7
 65
   257
 75
     1
175
     1
 42
1.0
 92
        8
 66
     7
 43
1.0
 76
     1
 77
     6
 78
     2
 67
     7
 79
     5
170
     0
171
     0
290
     0
174
     0
 93
        1
 44
0.0
173
     0
291
     1
 45
0.0
1001
ACAD
1000
AcDbSavedByObjectVersion
1070
     0
  0
VISUALSTYLE
  5
36
102
{ACAD_REACTORS
330
2A
102
}
102
{ACAD_XDICTIONARY
360
CD
102
}
330
2A
100
AcDbVisualStyle
  2
Brighten
 70
    12
 71
     2
 72
     2
 73
     0
 90
        0
 40
-0.6
 41
-30.0
 62
     5
 63
     7
 74
     1
 91
        4
 64
     7
 65
   257
 75
     1
175
     1
 42
1.0
 92
        8
 66
     7
 43
1.0
 76
     1
 77
     6
 78
     2
 67
     7
 79
     5
170
     0
171
     0
290
     0
174
     0
 93
        1
 44
50.0
173
     0
291
     1
 45
0.0
1001
ACAD
1000
AcDbSavedByObjectVersion
1070
     0
  0
VISUALSTYLE
  5
3A
102
{ACAD_REACTORS
330
2A
102
}
102
{ACAD_XDICTIONARY
360
D5
102
}
330
2A
100
AcDbVisualStyle
  2
ColorChange
 70
    16
 71
     2
 72
     2
 73
     3
 90
        0
 40
-0.6
 41
-30.0
 62
     5
 63
     8
 74
     1
 91
        4
 64
     7
 65
   257
 75
     1
175
     1
 42
1.0
 92
        8
 66
     8
 43
1.0
 76
     1
 77
     6
 78
     2
 67
     7
 79
     5
170
     0
171
     0
290
     0
174
     0
 93
        1
 44
0.0
173
     0
291
     1
 45
0.0
1001
ACAD
1000
AcDbSavedByObjectVersion
1070
     0
  0
VISUALSTYLE
  5
34
102
{ACAD_REACTORS
330
2A
102
}
102
{ACAD_XDICTIONARY
360
C9
102
}
330
2A
100
AcDbVisualStyle
  2
Conceptual
 70
     9
 71
     3
 72
     2
 73
     0
 90
        0
 40
-0.6
 41
-30.0
 62
     5
 63
     7
 74
     2
 91
        2
 64
     7
 65
   257
 75
     1
175
     1
 42
40.0
 92
        8
 66
     7
 43
1.0
 76
     1
 77
     6
 78
     2
 67
     7
 79
     3
170
     0
171
     0
290
     0
174
     0
 93
        1
 44
0.0
173
     0
291
     0
 45
0.0
1001
ACAD
1000
AcDbSavedByObjectVersion
1070
     0
  0
VISUALSTYLE
  5
35
102
{ACAD_REACTORS
330
2A
102
}
102
{ACAD_XDICTIONARY
360
CB
102
}
330
2A
100
AcDbVisualStyle
  2
Dim
 70
    11
 71
     2
 72
     2
 73
     0
 90
        0
 40
-0.6
 41
-30.0
 62
     5
 63
     7
 74
     1
 91
        4
 64
     7
 65
   257
 75
     1
175
     1
 42
1.0
 92
        8
 66
     7
 43
1.0
 76
     1
 77
     6
 78
     2
 67
     7
 79
     5
170
     0
171
     0
290
     0
174
     0
 93
        1
 44
-50.0
173
     0
291
     1
 45
0.0
1001
ACAD
1000
AcDbSavedByObjectVersion
1070
     0
  0
VISUALSTYLE
  5
39
102
{ACAD_REACTORS
330
2A
102
}
102
{ACAD_XDICTIONARY
360
D3
102
}
330
2A
100
AcDbVisualStyle
  2
Facepattern
 70
    15
 71
     2
 72
     2
 73
     0
 90
        0
 40
-0.6
 41
-30.0
 62
     5
 63
     7
 74
     1
 91
        4
 64
     7
 65
   257
 75
     1
175
     1
 42
1.0
 92
        8
 66
     7
 43
1.0
 76
     1
 77
     6
 78
     2
 67
     7
 79
     5
170
     0
171
     0
290
     0
174
     0
 93
        1
 44
0.0
173
     0
291
     1
 45
0.0
1001
ACAD
1000
AcDbSavedByObjectVersion
1070
     0
  0
VISUALSTYLE
  5
2B
102
{ACAD_REACTORS
330
2A
102
}
102
{ACAD_XDICTIONARY
360
B7
102
}
330
2A
100
AcDbVisualStyle
  2
Flat
 70
     0
 71
     2
 72
     1
 73
     1
 90
        2
 40
-0.6
 41
30.0
 62
     5
 63
     7
 74
     0
 91
        4
 64
     7
 65
   257
 75
     1
175
     1
 42
1.0
 92
        8
 66
     7
 43
1.0
 76
     1
 77
     6
 78
     2
 67
     7
 79
     5
170
     0
171
     0
290
     0
174
     0
 93
       13
 44
0.0
173
     0
291
     1
 45
0.0
1001
ACAD
1000
AcDbSavedByObjectVersion
1070
     0
  0
VISUALSTYLE
  5
2C
102
{ACAD_REACTORS
330
2A
102
}
102
{ACAD_XDICTIONARY
360
B9
102
}
330
2A
100
AcDbVisualStyle
  2
FlatWithEdges
 70
     1
 71
     2
 72
     1
 73
     1
 90
        2
 40
-0.6
 41
30.0
 62
     5
 63
     7
 74
     1
 91
        4
 64
     7
 65
   257
 75
     1
175
     1
 42
1.0
 92
        0
 66
   257
 43
1.0
 76
     1
 77
     6
 78
     2
 67
     7
 79
     5
170
     0
171
     0
290
     0
174
     0
 93
       13
 44
0.0
173
     0
291
     1
 45
0.0
1001
ACAD
1000
AcDbSavedByObjectVersion
1070
     0
  0
VISUALSTYLE
  5
2D
102
{ACAD_REACTORS
330
2A
102
}
102
{ACAD_XDICTIONARY
360
BB
102
}
330
2A
100
AcDbVisualStyle
  2
Gouraud
 70
     2
 71
     2
 72
     2
 73
     1
 90
        2
 40
-0.6
 41
30.0
 62
     5
 63
     7
 74
     0
 91
        4
 64
     7
 65
   257
 75
     1
175
     1
 42
1.0
 92
        0
 66
     7
 43
1.0
 76
     1
 77
     6
 78
     2
 67
     7
 79
     5
170
     0
171
     0
290
     0
174
     0
 93
       13
 44
0.0
173
     0
291
     1
 45
0.0
1001
ACAD
1000
AcDbSavedByObjectVersion
1070
     0
  0
VISUALSTYLE
  5
2E
102
{ACAD_REACTORS
330
2A
102
}
102
{ACAD_XDICTIONARY
360
BD
102
}
330
2A
100
AcDbVisualStyle
  2
GouraudWithEdges
 70
     3
 71
     2
 72
     2
 73
     1
 90
        2
 40
-0.6
 41
30.0
 62
     5
 63
     7
 74
     1
 91
        4
 64
     7
 65
   257
 75
     1
175
     1
 42
1.0
 92
        0
 66
   257
 43
1.0
 76
     1
 77
     6
 78
     2
 67
     7
 79
     5
170
     0
171
     0
290
     0
174
     0
 93
       13
 44
0.0
173
     0
291
     1
 45
0.0
1001
ACAD
1000
AcDbSavedByObjectVersion
1070
     0
  0
VISUALSTYLE
  5
38
102
{ACAD_REACTORS
330
2A
102
}
102
{ACAD_XDICTIONARY
360
D1
102
}
330
2A
100
AcDbVisualStyle
  2
Linepattern
 70
    14
 71
     2
 72
     2
 73
     0
 90
        0
 40
-0.6
 41
-30.0
 62
     5
 63
     7
 74
     1
 91
        4
 64
     7
 65
   257
 75
     7
175
     7
 42
1.0
 92
        8
 66
     7
 43
1.0
 76
     1
 77
     6
 78
     2
 67
     7
 79
     5
170
     0
171
     0
290
     0
174
     0
 93
        1
 44
0.0
173
     0
291
     1
 45
0.0
1001
ACAD
1000
AcDbSavedByObjectVersion
1070
     0
  0
VISUALSTYLE
  5
33
102
{ACAD_REACTORS
330
2A
102
}
102
{ACAD_XDICTIONARY
360
C7
102
}
330
2A
100
AcDbVisualStyle
  2
Realistic
 70
     8
 71
     2
 72
     2
 73
     0
 90
        0
 40
-0.6
 41
-30.0
 62
     5
 63
     7
 74
     1
 91
        0
 64
     7
 65
   257
 75
     1
175
     1
 42
1.0
 92
        8
 66
     8
 43
1.0
 76
     1
 77
     6
 78
     2
 67
     7
 79
     5
170
     0
171
     0
290
     0
174
     0
 93
       13
 44
0.0
173
     0
291
     0
 45
0.0
1001
ACAD
1000
AcDbSavedByObjectVersion
1070
     0
  0
VISUALSTYLE
  5
37
102
{ACAD_REACTORS
330
2A
102
}
102
{ACAD_XDICTIONARY
360
CF
102
}
330
2A
100
AcDbVisualStyle
  2
Thicken
 70
    13
 71
     2
 72
     2
 73
     0
 90
        0
 40
-0.6
 41
-30.0
 62
     5
 63
     7
 74
     1
 91
        4
 64
     7
 65
   257
 75
     1
175
     1
 42
1.0
 92
       12
 66
     7
 43
1.0
 76
     1
 77
     6
 78
     2
 67
     7
 79
     5
170
     0
171
     0
290
     0
174
     0
 93
        1
 44
0.0
173
     0
291
     1
 45
0.0
1001
ACAD
1000
AcDbSavedByObjectVersion
1070
     0
  0
DICTIONARYVAR
  5
B5
102
{ACAD_REACTORS
330
B2
102
}
330
B2
100
DictionaryVariables
280
     0
  1
2
  0
DICTIONARYVAR
  5
B6
102
{ACAD_REACTORS
330
B2
102
}
330
B2
100
DictionaryVariables
280
     0
  1
1
  0
DICTIONARY
  5
D9
330
3D
100
AcDbDictionary
280
     1
281
     1
  3
ACAD_XREC_ROUNDTRIP
360
DA
  0
DICTIONARY
  5
D7
330
3C
100
AcDbDictionary
280
     1
281
     1
  3
ACAD_XREC_ROUNDTRIP
360
D8
  0
DICTIONARY
  5
DB
330
3E
100
AcDbDictionary
280
     1
281
     1
  3
ACAD_XREC_ROUNDTRIP
360
DC
  0
DICTIONARY
  5
BF
330
2F
100
AcDbDictionary
280
     1
281
     1
  3
ACAD_XREC_ROUNDTRIP
360
C0
  0
DICTIONARY
  5
C3
330
31
100
AcDbDictionary
280
     1
281
     1
  3
ACAD_XREC_ROUNDTRIP
360
C4
  0
DICTIONARY
  5
C1
330
30
100
AcDbDictionary
280
     1
281
     1
  3
ACAD_XREC_ROUNDTRIP
360
C2
  0
DICTIONARY
  5
C5
330
32
100
AcDbDictionary
280
     1
281
     1
  3
ACAD_XREC_ROUNDTRIP
360
C6
  0
DICTIONARY
  5
CD
330
36
100
AcDbDictionary
280
     1
281
     1
  3
ACAD_XREC_ROUNDTRIP
360
CE
  0
DICTIONARY
  5
D5
330
3A
100
AcDbDictionary
280
     1
281
     1
  3
ACAD_XREC_ROUNDTRIP
360
D6
  0
DICTIONARY
  5
C9
330
34
100
AcDbDictionary
280
     1
281
     1
  3
ACAD_XREC_ROUNDTRIP
360
CA
  0
DICTIONARY
  5
CB
330
35
100
AcDbDictionary
280
     1
281
     1
  3
ACAD_XREC_ROUNDTRIP
360
CC
  0
DICTIONARY
  5
D3
330
39
100
AcDbDictionary
280
     1
281
     1
  3
ACAD_XREC_ROUNDTRIP
360
D4
  0
DICTIONARY
  5
B7
330
2B
100
AcDbDictionary
280
     1
281
     1
  3
ACAD_XREC_ROUNDTRIP
360
B8
  0
DICTIONARY
  5
B9
330
2C
100
AcDbDictionary
280
     1
281
     1
  3
ACAD_XREC_ROUNDTRIP
360
BA
  0
DICTIONARY
  5
BB
330
2D
100
AcDbDictionary
280
     1
281
     1
  3
ACAD_XREC_ROUNDTRIP
360
BC
  0
DICTIONARY
  5
BD
330
2E
100
AcDbDictionary
280
     1
281
     1
  3
ACAD_XREC_ROUNDTRIP
360
BE
  0
DICTIONARY
  5
D1
330
38
100
AcDbDictionary
280
     1
281
     1
  3
ACAD_XREC_ROUNDTRIP
360
D2
  0
DICTIONARY
  5
C7
330
33
100
AcDbDictionary
280
     1
281
     1
  3
ACAD_XREC_ROUNDTRIP
360
C8
  0
DICTIONARY
  5
CF
330
37
100
AcDbDictionary
280
     1
281
     1
  3
ACAD_XREC_ROUNDTRIP
360
D0
  0
XRECORD
  5
DA
102
{ACAD_REACTORS
330
D9
102
}
330
D9
100
AcDbXrecord
280
     1
102
MATERIAL
148
0.0
149
0.0
149
0.0
 93
        0
 94
      127
282
     0
 72
     1
 77
     1
171
     1
175
     1
179
     1
273
     0
  0
XRECORD
  5
D8
102
{ACAD_REACTORS
330
D7
102
}
330
D7
100
AcDbXrecord
280
     1
102
MATERIAL
148
0.0
149
0.0
149
0.0
 93
        0
 94
      127
282
     0
 72
     1
 77
     1
171
     1
175
     1
179
     1
273
     0
  0
XRECORD
  5
DC
102
{ACAD_REACTORS
330
DB
102
}
330
DB
100
AcDbXrecord
280
     1
102
MATERIAL
148
0.0
149
0.0
149
0.0
 93
        0
 94
      127
282
     0
 72
     1
 77
     1
171
     1
175
     1
179
     1
273
     0
  0
XRECORD
  5
C0
102
{ACAD_REACTORS
330
BF
102
}
330
BF
100
AcDbXrecord
280
     1
102
RTVSPropertyOp0
 70
     1
102
RTVSPropertyOp1
 70
     1
102
RTVSPropertyOp2
 70
     1
102
RTVSPropertyOp3
 70
     1
102
RTVSPropertyOp4
 70
     1
102
RTVSPropertyOp5
 70
     1
102
RTVSPropertyOp6
 70
     1
102
RTVSPropertyOp7
 70
     1
102
RTVSPropertyOp8
 70
     1
102
RTVSPropertyOp9
 70
     1
102
RTVSPropertyOp10
 70
     1
102
RTVSPropertyOp11
 70
     1
102
RTVSPropertyOp12
 70
     1
102
RTVSPropertyOp13
 70
     1
102
RTVSPropertyOp14
 70
     1
102
RTVSPropertyOp15
 70
     1
102
RTVSPropertyOp16
 70
     1
102
RTVSPropertyOp17
 70
     1
102
RTVSPropertyOp18
 70
     1
102
RTVSPropertyOp19
 70
     1
102
RTVSPropertyOp20
 70
     1
102
RTVSPropertyOp21
 70
     1
102
RTVSPropertyOp22
 70
     1
102
RTVSPropertyOp23
 70
     1
102
RTVSPropertyOp24
 70
     1
102
RTVSPropertyOp25
 70
     1
102
RTVSPropertyOp26
 70
     1
102
RTVSPropertyOp27
 70
     1
102
RTVSPropertyOp28
 70
     1
102
RTVSPropertyOp29
 70
     1
102
RTVSPropertyOp30
 70
     1
102
RTVSPropertyOp31
 70
     1
102
RTVSPropertyOp32
 70
     1
  0
XRECORD
  5
C4
102
{ACAD_REACTORS
330
C3
102
}
330
C3
100
AcDbXrecord
280
     1
102
RTVSPropertyOp0
 70
     1
102
RTVSPropertyOp1
 70
     1
102
RTVSPropertyOp2
 70
     1
102
RTVSPropertyOp3
 70
     1
102
RTVSPropertyOp4
 70
     1
102
RTVSPropertyOp5
 70
     1
102
RTVSPropertyOp6
 70
     1
102
RTVSPropertyOp7
 70
     1
102
RTVSPropertyOp8
 70
     1
102
RTVSPropertyOp9
 70
     1
102
RTVSPropertyOp10
 70
     1
102
RTVSPropertyOp11
 70
     1
102
RTVSPropertyOp12
 70
     1
102
RTVSPropertyOp13
 70
     1
102
RTVSPropertyOp14
 70
     1
102
RTVSPropertyOp15
 70
     1
102
RTVSPropertyOp16
 70
     1
102
RTVSPropertyOp17
 70
     1
102
RTVSPropertyOp18
 70
     1
102
RTVSPropertyOp19
 70
     1
102
RTVSPropertyOp20
 70
     1
102
RTVSPropertyOp21
 70
     1
102
RTVSPropertyOp22
 70
     1
102
RTVSPropertyOp23
 70
     1
102
RTVSPropertyOp24
 70
     1
102
RTVSPropertyOp25
 70
     1
102
RTVSPropertyOp26
 70
     1
102
RTVSPropertyOp27
 70
     1
102
RTVSPropertyOp28
 70
     1
102
RTVSPropertyOp29
 70
     1
102
RTVSPropertyOp30
 70
     1
102
RTVSPropertyOp31
 70
     1
102
RTVSPropertyOp32
 70
     1
  0
XRECORD
  5
C2
102
{ACAD_REACTORS
330
C1
102
}
330
C1
100
AcDbXrecord
280
     1
102
RTVSPropertyOp0
 70
     1
102
RTVSPropertyOp1
 70
     1
102
RTVSPropertyOp2
 70
     1
102
RTVSPropertyOp3
 70
     1
102
RTVSPropertyOp4
 70
     1
102
RTVSPropertyOp5
 70
     1
102
RTVSPropertyOp6
 70
     1
102
RTVSPropertyOp7
 70
     1
102
RTVSPropertyOp8
 70
     1
102
RTVSPropertyOp9
 70
     1
102
RTVSPropertyOp10
 70
     1
102
RTVSPropertyOp11
 70
     1
102
RTVSPropertyOp12
 70
     1
102
RTVSPropertyOp13
 70
     1
102
RTVSPropertyOp14
 70
     1
102
RTVSPropertyOp15
 70
     1
102
RTVSPropertyOp16
 70
     1
102
RTVSPropertyOp17
 70
     1
102
RTVSPropertyOp18
 70
     1
102
RTVSPropertyOp19
 70
     1
102
RTVSPropertyOp20
 70
     1
102
RTVSPropertyOp21
 70
     1
102
RTVSPropertyOp22
 70
     1
102
RTVSPropertyOp23
 70
     1
102
RTVSPropertyOp24
 70
     1
102
RTVSPropertyOp25
 70
     1
102
RTVSPropertyOp26
 70
     1
102
RTVSPropertyOp27
 70
     1
102
RTVSPropertyOp28
 70
     1
102
RTVSPropertyOp29
 70
     1
102
RTVSPropertyOp30
 70
     1
102
RTVSPropertyOp31
 70
     1
102
RTVSPropertyOp32
 70
     1
  0
XRECORD
  5
C6
102
{ACAD_REACTORS
330
C5
102
}
330
C5
100
AcDbXrecord
280
     1
102
RTVSPropertyOp0
 70
     1
102
RTVSPropertyOp1
 70
     1
102
RTVSPropertyOp2
 70
     1
102
RTVSPropertyOp3
 70
     1
102
RTVSPropertyOp4
 70
     1
102
RTVSPropertyOp5
 70
     1
102
RTVSPropertyOp6
 70
     1
102
RTVSPropertyOp7
 70
     1
102
RTVSPropertyOp8
 70
     1
102
RTVSPropertyOp9
 70
     1
102
RTVSPropertyOp10
 70
     1
102
RTVSPropertyOp11
 70
     1
102
RTVSPropertyOp12
 70
     1
102
RTVSPropertyOp13
 70
     1
102
RTVSPropertyOp14
 70
     1
102
RTVSPropertyOp15
 70
     1
102
RTVSPropertyOp16
 70
     1
102
RTVSPropertyOp17
 70
     1
102
RTVSPropertyOp18
 70
     1
102
RTVSPropertyOp19
 70
     1
102
RTVSPropertyOp20
 70
     1
102
RTVSPropertyOp21
 70
     1
102
RTVSPropertyOp22
 70
     1
102
RTVSPropertyOp23
 70
     1
102
RTVSPropertyOp24
 70
     1
102
RTVSPropertyOp25
 70
     1
102
RTVSPropertyOp26
 70
     1
102
RTVSPropertyOp27
 70
     1
102
RTVSPropertyOp28
 70
     1
102
RTVSPropertyOp29
 70
     1
102
RTVSPropertyOp30
 70
     1
102
RTVSPropertyOp31
 70
     1
102
RTVSPropertyOp32
 70
     1
  0
XRECORD
  5
CE
102
{ACAD_REACTORS
330
CD
102
}
330
CD
100
AcDbXrecord
280
     1
102
RTVSPropertyOp0
 70
     1
102
RTVSPropertyOp1
 70
     1
102
RTVSPropertyOp2
 70
     1
102
RTVSPropertyOp3
 70
     1
102
RTVSPropertyOp4
 70
     1
102
RTVSPropertyOp5
 70
     1
102
RTVSPropertyOp6
 70
     1
102
RTVSPropertyOp7
 70
     1
102
RTVSPropertyOp8
 70
     1
102
RTVSPropertyOp9
 70
     1
102
RTVSPropertyOp10
 70
     1
102
RTVSPropertyOp11
 70
     1
102
RTVSPropertyOp12
 70
     1
102
RTVSPropertyOp13
 70
     1
102
RTVSPropertyOp14
 70
     1
102
RTVSPropertyOp15
 70
     1
102
RTVSPropertyOp16
 70
     1
102
RTVSPropertyOp17
 70
     1
102
RTVSPropertyOp18
 70
     1
102
RTVSPropertyOp19
 70
     1
102
RTVSPropertyOp20
 70
     1
102
RTVSPropertyOp21
 70
     1
102
RTVSPropertyOp22
 70
     1
102
RTVSPropertyOp23
 70
     1
102
RTVSPropertyOp24
 70
     1
102
RTVSPropertyOp25
 70
     1
102
RTVSPropertyOp26
 70
     1
102
RTVSPropertyOp27
 70
     1
102
RTVSPropertyOp28
 70
     1
102
RTVSPropertyOp29
 70
     1
102
RTVSPropertyOp30
 70
     1
102
RTVSPropertyOp31
 70
     1
102
RTVSPropertyOp32
 70
     1
  0
XRECORD
  5
D6
102
{ACAD_REACTORS
330
D5
102
}
330
D5
100
AcDbXrecord
280
     1
102
RTVSPropertyOp0
 70
     1
102
RTVSPropertyOp1
 70
     1
102
RTVSPropertyOp2
 70
     1
102
RTVSPropertyOp3
 70
     1
102
RTVSPropertyOp4
 70
     1
102
RTVSPropertyOp5
 70
     1
102
RTVSPropertyOp6
 70
     1
102
RTVSPropertyOp7
 70
     1
102
RTVSPropertyOp8
 70
     1
102
RTVSPropertyOp9
 70
     1
102
RTVSPropertyOp10
 70
     1
102
RTVSPropertyOp11
 70
     1
102
RTVSPropertyOp12
 70
     1
102
RTVSPropertyOp13
 70
     1
102
RTVSPropertyOp14
 70
     1
102
RTVSPropertyOp15
 70
     1
102
RTVSPropertyOp16
 70
     1
102
RTVSPropertyOp17
 70
     1
102
RTVSPropertyOp18
 70
     1
102
RTVSPropertyOp19
 70
     1
102
RTVSPropertyOp20
 70
     1
102
RTVSPropertyOp21
 70
     1
102
RTVSPropertyOp22
 70
     1
102
RTVSPropertyOp23
 70
     1
102
RTVSPropertyOp24
 70
     1
102
RTVSPropertyOp25
 70
     1
102
RTVSPropertyOp26
 70
     1
102
RTVSPropertyOp27
 70
     1
102
RTVSPropertyOp28
 70
     1
102
RTVSPropertyOp29
 70
     1
102
RTVSPropertyOp30
 70
     1
102
RTVSPropertyOp31
 70
     1
102
RTVSPropertyOp32
 70
     1
  0
XRECORD
  5
CA
102
{ACAD_REACTORS
330
C9
102
}
330
C9
100
AcDbXrecord
280
     1
102
RTVSPropertyOp0
 70
     1
102
RTVSPropertyOp1
 70
     1
102
RTVSPropertyOp2
 70
     1
102
RTVSPropertyOp3
 70
     1
102
RTVSPropertyOp4
 70
     1
102
RTVSPropertyOp5
 70
     1
102
RTVSPropertyOp6
 70
     1
102
RTVSPropertyOp7
 70
     1
102
RTVSPropertyOp8
 70
     1
102
RTVSPropertyOp9
 70
     1
102
RTVSPropertyOp10
 70
     1
102
RTVSPropertyOp11
 70
     1
102
RTVSPropertyOp12
 70
     1
102
RTVSPropertyOp13
 70
     1
102
RTVSPropertyOp14
 70
     1
102
RTVSPropertyOp15
 70
     1
102
RTVSPropertyOp16
 70
     1
102
RTVSPropertyOp17
 70
     1
102
RTVSPropertyOp18
 70
     1
102
RTVSPropertyOp19
 70
     1
102
RTVSPropertyOp20
 70
     1
102
RTVSPropertyOp21
 70
     1
102
RTVSPropertyOp22
 70
     1
102
RTVSPropertyOp23
 70
     1
102
RTVSPropertyOp24
 70
     1
102
RTVSPropertyOp25
 70
     1
102
RTVSPropertyOp26
 70
     1
102
RTVSPropertyOp27
 70
     1
102
RTVSPropertyOp28
 70
     1
102
RTVSPropertyOp29
 70
     1
102
RTVSPropertyOp30
 70
     1
102
RTVSPropertyOp31
 70
     1
102
RTVSPropertyOp32
 70
     1
  0
XRECORD
  5
CC
102
{ACAD_REACTORS
330
CB
102
}
330
CB
100
AcDbXrecord
280
     1
102
RTVSPropertyOp0
 70
     1
102
RTVSPropertyOp1
 70
     1
102
RTVSPropertyOp2
 70
     1
102
RTVSPropertyOp3
 70
     1
102
RTVSPropertyOp4
 70
     1
102
RTVSPropertyOp5
 70
     1
102
RTVSPropertyOp6
 70
     1
102
RTVSPropertyOp7
 70
     1
102
RTVSPropertyOp8
 70
     1
102
RTVSPropertyOp9
 70
     1
102
RTVSPropertyOp10
 70
     1
102
RTVSPropertyOp11
 70
     1
102
RTVSPropertyOp12
 70
     1
102
RTVSPropertyOp13
 70
     1
102
RTVSPropertyOp14
 70
     1
102
RTVSPropertyOp15
 70
     1
102
RTVSPropertyOp16
 70
     1
102
RTVSPropertyOp17
 70
     1
102
RTVSPropertyOp18
 70
     1
102
RTVSPropertyOp19
 70
     1
102
RTVSPropertyOp20
 70
     1
102
RTVSPropertyOp21
 70
     1
102
RTVSPropertyOp22
 70
     1
102
RTVSPropertyOp23
 70
     1
102
RTVSPropertyOp24
 70
     1
102
RTVSPropertyOp25
 70
     1
102
RTVSPropertyOp26
 70
     1
102
RTVSPropertyOp27
 70
     1
102
RTVSPropertyOp28
 70
     1
102
RTVSPropertyOp29
 70
     1
102
RTVSPropertyOp30
 70
     1
102
RTVSPropertyOp31
 70
     1
102
RTVSPropertyOp32
 70
     1
  0
XRECORD
  5
D4
102
{ACAD_REACTORS
330
D3
102
}
330
D3
100
AcDbXrecord
280
     1
102
RTVSPropertyOp0
 70
     1
102
RTVSPropertyOp1
 70
     1
102
RTVSPropertyOp2
 70
     1
102
RTVSPropertyOp3
 70
     1
102
RTVSPropertyOp4
 70
     1
102
RTVSPropertyOp5
 70
     1
102
RTVSPropertyOp6
 70
     1
102
RTVSPropertyOp7
 70
     1
102
RTVSPropertyOp8
 70
     1
102
RTVSPropertyOp9
 70
     1
102
RTVSPropertyOp10
 70
     1
102
RTVSPropertyOp11
 70
     1
102
RTVSPropertyOp12
 70
     1
102
RTVSPropertyOp13
 70
     1
102
RTVSPropertyOp14
 70
     1
102
RTVSPropertyOp15
 70
     1
102
RTVSPropertyOp16
 70
     1
102
RTVSPropertyOp17
 70
     1
102
RTVSPropertyOp18
 70
     1
102
RTVSPropertyOp19
 70
     1
102
RTVSPropertyOp20
 70
     1
102
RTVSPropertyOp21
 70
     1
102
RTVSPropertyOp22
 70
     1
102
RTVSPropertyOp23
 70
     1
102
RTVSPropertyOp24
 70
     1
102
RTVSPropertyOp25
 70
     1
102
RTVSPropertyOp26
 70
     1
102
RTVSPropertyOp27
 70
     1
102
RTVSPropertyOp28
 70
     1
102
RTVSPropertyOp29
 70
     1
102
RTVSPropertyOp30
 70
     1
102
RTVSPropertyOp31
 70
     1
102
RTVSPropertyOp32
 70
     1
  0
XRECORD
  5
B8
102
{ACAD_REACTORS
330
B7
102
}
330
B7
100
AcDbXrecord
280
     1
102
RTVSPropertyOp0
 70
     1
102
RTVSPropertyOp1
 70
     1
102
RTVSPropertyOp2
 70
     1
102
RTVSPropertyOp3
 70
     1
102
RTVSPropertyOp4
 70
     1
102
RTVSPropertyOp5
 70
     1
102
RTVSPropertyOp6
 70
     1
102
RTVSPropertyOp7
 70
     1
102
RTVSPropertyOp8
 70
     1
102
RTVSPropertyOp9
 70
     1
102
RTVSPropertyOp10
 70
     1
102
RTVSPropertyOp11
 70
     1
102
RTVSPropertyOp12
 70
     1
102
RTVSPropertyOp13
 70
     1
102
RTVSPropertyOp14
 70
     1
102
RTVSPropertyOp15
 70
     1
102
RTVSPropertyOp16
 70
     1
102
RTVSPropertyOp17
 70
     1
102
RTVSPropertyOp18
 70
     1
102
RTVSPropertyOp19
 70
     1
102
RTVSPropertyOp20
 70
     1
102
RTVSPropertyOp21
 70
     1
102
RTVSPropertyOp22
 70
     1
102
RTVSPropertyOp23
 70
     1
102
RTVSPropertyOp24
 70
     1
102
RTVSPropertyOp25
 70
     1
102
RTVSPropertyOp26
 70
     1
102
RTVSPropertyOp27
 70
     1
102
RTVSPropertyOp28
 70
     1
102
RTVSPropertyOp29
 70
     1
102
RTVSPropertyOp30
 70
     1
102
RTVSPropertyOp31
 70
     1
102
RTVSPropertyOp32
 70
     1
  0
XRECORD
  5
BA
102
{ACAD_REACTORS
330
B9
102
}
330
B9
100
AcDbXrecord
280
     1
102
RTVSPropertyOp0
 70
     1
102
RTVSPropertyOp1
 70
     1
102
RTVSPropertyOp2
 70
     1
102
RTVSPropertyOp3
 70
     1
102
RTVSPropertyOp4
 70
     1
102
RTVSPropertyOp5
 70
     1
102
RTVSPropertyOp6
 70
     1
102
RTVSPropertyOp7
 70
     1
102
RTVSPropertyOp8
 70
     1
102
RTVSPropertyOp9
 70
     1
102
RTVSPropertyOp10
 70
     1
102
RTVSPropertyOp11
 70
     1
102
RTVSPropertyOp12
 70
     1
102
RTVSPropertyOp13
 70
     1
102
RTVSPropertyOp14
 70
     1
102
RTVSPropertyOp15
 70
     1
102
RTVSPropertyOp16
 70
     1
102
RTVSPropertyOp17
 70
     1
102
RTVSPropertyOp18
 70
     1
102
RTVSPropertyOp19
 70
     1
102
RTVSPropertyOp20
 70
     1
102
RTVSPropertyOp21
 70
     1
102
RTVSPropertyOp22
 70
     1
102
RTVSPropertyOp23
 70
     1
102
RTVSPropertyOp24
 70
     1
102
RTVSPropertyOp25
 70
     1
102
RTVSPropertyOp26
 70
     1
102
RTVSPropertyOp27
 70
     1
102
RTVSPropertyOp28
 70
     1
102
RTVSPropertyOp29
 70
     1
102
RTVSPropertyOp30
 70
     1
102
RTVSPropertyOp31
 70
     1
102
RTVSPropertyOp32
 70
     1
  0
XRECORD
  5
BC
102
{ACAD_REACTORS
330
BB
102
}
330
BB
100
AcDbXrecord
280
     1
102
RTVSPropertyOp0
 70
     1
102
RTVSPropertyOp1
 70
     1
102
RTVSPropertyOp2
 70
     1
102
RTVSPropertyOp3
 70
     1
102
RTVSPropertyOp4
 70
     1
102
RTVSPropertyOp5
 70
     1
102
RTVSPropertyOp6
 70
     1
102
RTVSPropertyOp7
 70
     1
102
RTVSPropertyOp8
 70
     1
102
RTVSPropertyOp9
 70
     1
102
RTVSPropertyOp10
 70
     1
102
RTVSPropertyOp11
 70
     1
102
RTVSPropertyOp12
 70
     1
102
RTVSPropertyOp13
 70
     1
102
RTVSPropertyOp14
 70
     1
102
RTVSPropertyOp15
 70
     1
102
RTVSPropertyOp16
 70
     1
102
RTVSPropertyOp17
 70
     1
102
RTVSPropertyOp18
 70
     1
102
RTVSPropertyOp19
 70
     1
102
RTVSPropertyOp20
 70
     1
102
RTVSPropertyOp21
 70
     1
102
RTVSPropertyOp22
 70
     1
102
RTVSPropertyOp23
 70
     1
102
RTVSPropertyOp24
 70
     1
102
RTVSPropertyOp25
 70
     1
102
RTVSPropertyOp26
 70
     1
102
RTVSPropertyOp27
 70
     1
102
RTVSPropertyOp28
 70
     1
102
RTVSPropertyOp29
 70
     1
102
RTVSPropertyOp30
 70
     1
102
RTVSPropertyOp31
 70
     1
102
RTVSPropertyOp32
 70
     1
  0
XRECORD
  5
BE
102
{ACAD_REACTORS
330
BD
102
}
330
BD
100
AcDbXrecord
280
     1
102
RTVSPropertyOp0
 70
     1
102
RTVSPropertyOp1
 70
     1
102
RTVSPropertyOp2
 70
     1
102
RTVSPropertyOp3
 70
     1
102
RTVSPropertyOp4
 70
     1
102
RTVSPropertyOp5
 70
     1
102
RTVSPropertyOp6
 70
     1
102
RTVSPropertyOp7
 70
     1
102
RTVSPropertyOp8
 70
     1
102
RTVSPropertyOp9
 70
     1
102
RTVSPropertyOp10
 70
     1
102
RTVSPropertyOp11
 70
     1
102
RTVSPropertyOp12
 70
     1
102
RTVSPropertyOp13
 70
     1
102
RTVSPropertyOp14
 70
     1
102
RTVSPropertyOp15
 70
     1
102
RTVSPropertyOp16
 70
     1
102
RTVSPropertyOp17
 70
     1
102
RTVSPropertyOp18
 70
     1
102
RTVSPropertyOp19
 70
     1
102
RTVSPropertyOp20
 70
     1
102
RTVSPropertyOp21
 70
     1
102
RTVSPropertyOp22
 70
     1
102
RTVSPropertyOp23
 70
     1
102
RTVSPropertyOp24
 70
     1
102
RTVSPropertyOp25
 70
     1
102
RTVSPropertyOp26
 70
     1
102
RTVSPropertyOp27
 70
     1
102
RTVSPropertyOp28
 70
     1
102
RTVSPropertyOp29
 70
     1
102
RTVSPropertyOp30
 70
     1
102
RTVSPropertyOp31
 70
     1
102
RTVSPropertyOp32
 70
     1
  0
XRECORD
  5
D2
102
{ACAD_REACTORS
330
D1
102
}
330
D1
100
AcDbXrecord
280
     1
102
RTVSPropertyOp0
 70
     1
102
RTVSPropertyOp1
 70
     1
102
RTVSPropertyOp2
 70
     1
102
RTVSPropertyOp3
 70
     1
102
RTVSPropertyOp4
 70
     1
102
RTVSPropertyOp5
 70
     1
102
RTVSPropertyOp6
 70
     1
102
RTVSPropertyOp7
 70
     1
102
RTVSPropertyOp8
 70
     1
102
RTVSPropertyOp9
 70
     1
102
RTVSPropertyOp10
 70
     1
102
RTVSPropertyOp11
 70
     1
102
RTVSPropertyOp12
 70
     1
102
RTVSPropertyOp13
 70
     1
102
RTVSPropertyOp14
 70
     1
102
RTVSPropertyOp15
 70
     1
102
RTVSPropertyOp16
 70
     1
102
RTVSPropertyOp17
 70
     1
102
RTVSPropertyOp18
 70
     1
102
RTVSPropertyOp19
 70
     1
102
RTVSPropertyOp20
 70
     1
102
RTVSPropertyOp21
 70
     1
102
RTVSPropertyOp22
 70
     1
102
RTVSPropertyOp23
 70
     1
102
RTVSPropertyOp24
 70
     1
102
RTVSPropertyOp25
 70
     1
102
RTVSPropertyOp26
 70
     1
102
RTVSPropertyOp27
 70
     1
102
RTVSPropertyOp28
 70
     1
102
RTVSPropertyOp29
 70
     1
102
RTVSPropertyOp30
 70
     1
102
RTVSPropertyOp31
 70
     1
102
RTVSPropertyOp32
 70
     1
  0
XRECORD
  5
C8
102
{ACAD_REACTORS
330
C7
102
}
330
C7
100
AcDbXrecord
280
     1
102
RTVSPropertyOp0
 70
     1
102
RTVSPropertyOp1
 70
     1
102
RTVSPropertyOp2
 70
     1
102
RTVSPropertyOp3
 70
     1
102
RTVSPropertyOp4
 70
     1
102
RTVSPropertyOp5
 70
     1
102
RTVSPropertyOp6
 70
     1
102
RTVSPropertyOp7
 70
     1
102
RTVSPropertyOp8
 70
     1
102
RTVSPropertyOp9
 70
     1
102
RTVSPropertyOp10
 70
     1
102
RTVSPropertyOp11
 70
     1
102
RTVSPropertyOp12
 70
     1
102
RTVSPropertyOp13
 70
     1
102
RTVSPropertyOp14
 70
     1
102
RTVSPropertyOp15
 70
     1
102
RTVSPropertyOp16
 70
     1
102
RTVSPropertyOp17
 70
     1
102
RTVSPropertyOp18
 70
     1
102
RTVSPropertyOp19
 70
     1
102
RTVSPropertyOp20
 70
     1
102
RTVSPropertyOp21
 70
     1
102
RTVSPropertyOp22
 70
     1
102
RTVSPropertyOp23
 70
     1
102
RTVSPropertyOp24
 70
     1
102
RTVSPropertyOp25
 70
     1
102
RTVSPropertyOp26
 70
     1
102
RTVSPropertyOp27
 70
     1
102
RTVSPropertyOp28
 70
     1
102
RTVSPropertyOp29
 70
     1
102
RTVSPropertyOp30
 70
     1
102
RTVSPropertyOp31
 70
     1
102
RTVSPropertyOp32
 70
     1
  0
XRECORD
  5
D0
102
{ACAD_REACTORS
330
CF
102
}
330
CF
100
AcDbXrecord
280
     1
102
RTVSPropertyOp0
 70
     1
102
RTVSPropertyOp1
 70
     1
102
RTVSPropertyOp2
 70
     1
102
RTVSPropertyOp3
 70
     1
102
RTVSPropertyOp4
 70
     1
102
RTVSPropertyOp5
 70
     1
102
RTVSPropertyOp6
 70
     1
102
RTVSPropertyOp7
 70
     1
102
RTVSPropertyOp8
 70
     1
102
RTVSPropertyOp9
 70
     1
102
RTVSPropertyOp10
 70
     1
102
RTVSPropertyOp11
 70
     1
102
RTVSPropertyOp12
 70
     1
102
RTVSPropertyOp13
 70
     1
102
RTVSPropertyOp14
 70
     1
102
RTVSPropertyOp15
 70
     1
102
RTVSPropertyOp16
 70
     1
102
RTVSPropertyOp17
 70
     1
102
RTVSPropertyOp18
 70
     1
102
RTVSPropertyOp19
 70
     1
102
RTVSPropertyOp20
 70
     1
102
RTVSPropertyOp21
 70
     1
102
RTVSPropertyOp22
 70
     1
102
RTVSPropertyOp23
 70
     1
102
RTVSPropertyOp24
 70
     1
102
RTVSPropertyOp25
 70
     1
102
RTVSPropertyOp26
 70
     1
102
RTVSPropertyOp27
 70
     1
102
RTVSPropertyOp28
 70
     1
102
RTVSPropertyOp29
 70
     1
102
RTVSPropertyOp30
 70
     1
102
RTVSPropertyOp31
 70
     1
102
RTVSPropertyOp32
 70
     1
  0
ENDSEC
  0
EOF
